Distillers - Gallow Is God Chords & Tabs

 

Gallow Is God Chords & Tabs

Distillers Chords & Tabs

Version: 1 Type: Tab 0 ratings
1 star 2 stars 3 stars 4 stars 5 stars
comments

Gallow Is God Tab

intro/verse:

|---------   -------|
|-1-------   -------|
|-2-------   -------|
|-2--6/9\7   -6/9\7-|  (extra bit before the pause in the intro)
|-0--6/9\7   -6/9\7-|
|----4/7\5   -4/7\5-|

pre-chorus:

|-------------|
|-------------|
|-----------6-|
|-7-6-4--4566-|
|-7-6-4--4564-|
|-5-4-2--234--|

chorus:

|---------------|
|---------------|
|-6-1-6-1-------|
|-6-2-6-2-4-557-| x2
|-4-2-4-2-4-567-|
|---------2-345-|

bridge:
[ Tab from: http://www.guitartabs.cc/tabs/d/distillers/gallow_is_god_tab.html ]
|-----------|
|-1(3)------|
|-2-4(3)--6-|
|-2-4-4-566-|
|-0-2-4-564-|
|-----2-34--|

"in the sun..."

|-------------|
|-------------|
|-6-1-------6-|
|-6-2-7-4-566-|
|-4-2-7-4-564-|
|-----5-2-34--|

last chorus:

|-----------|
|-----------|
|-6-1-------|
|-6-2-4-567-|
|-4-2-4-567-|
|-----2-345-|


thats all there is to this song....i didn't put strumming patterns or wotever coz its 
really basic...in the bridge the 3 is optional u deceide if it sounds better with or without.

mel.x ;)
Comments