Distillers - Gallow Is God Acoustic Chords & Tabs

 

Gallow Is God Acoustic Chords & Tabs

Distillers Chords & Tabs

Version: 1 Type: Tab 0 ratings
1 star 2 stars 3 stars 4 stars 5 stars
comments

Gallow Is God Acoustic Tab

   
 -------------------------------------------------------------------------------
	    The Gallow is God (acoustic version) - The Distillers
 -------------------------------------------------------------------------------

Written By Brody Dalle of The distillers

Tabbed by: SsPunk

Email: Lithium_Monkey@hotmail.com

Tuning: Standard (low - high EADGBe)


Chords Used:

C#5 - X46644
Am5 - X02200
Am  - 577555
G#m - 466444
F#m - 244222

This Song is on the B - Side Of The "Beat Your Heart Out"  Single.

C| = Chords

Note: Brody plays minor barre chords on this song,
but the way  she holds the barre, the G string gets muted.
Sometimes you play the High B & E strings, sometimes you don't.

Intro/verse riff:


C| Am        F#m G#m      | Am        F#m G#m      |
e|-5---5--X-----------X---|-5---5--X-----------X---|
B|-5---5--X-----------X---|-5---5--X-----------X---|
G|-X---X--X--X-/-X-\--X---|-X---X--X--X-/-X-\--X---|
D|-7---7--X--4-/-6-\-(0)--|-7---7--X--4-/-6-\-(0)--|
A|-7---7-(0)-4-/-6-\-(0)--|-7---7-(0)-4-/-6-\-(0)--|
E|-5---5-(0)-2-/-4-\-(0)--|-5---5-(0)-2-/-4-\-(0)--|

(Play this lots of times)



Then the Bridge:

C| Am              G#m             F#m                             |
e|-----------------------------------------------------------------|
B|-----------------------------------------------------------------|
G|-5-5-5-5-5-5-5-5-4-4-4-4-4-4-4-4-2-2-2-2-2-2-2-2-2-2-2-2-2-2-2-2-|
D|-7-7-7-7-7-7-7-7-6-6-6-6-6-6-6-6-4-4-4-4-4-4-4-4-4-4-4-4-4-4-4-4-|
A|-7-7-7-7-7-7-7-7-6-6-6-6-6-6-6-6-4-4-4-4-4-4-4-4-4-4-4-4-4-4-4-4-| 
E|-5-5-5-5-5-5-5-5-4-4-4-4-4-4-4-4-2-2-2-2-2-2-2-2-2-2-2-2-2-2-2-2-|

(the bridge is played softly with slow pickstrokes downwards.) 
 



Choruses 1 & 2
   
C| C#5                 A5                       |
e|-4----4---4-4--4--4--0----0--0--0--0--0--0--0-|
B|-4----4---4-4--4--4--0----0--0--0--0--0--0--0-|
G|-6----6---6-6--6--6--2----2--2--2--2--2--2--2-|
D|-6----6---6-6--6--6--2----2--2--2--2--2--2--2-|
A|-4----4---4-4--4--4--0----0--0--0--0--0--0--0-| 
E|----------------------------------------------|

C| C#5                 A5                       |
e|-4----4---4-4--4--4--0----0--0--0--0--0--0--X-|
B|-4----4---4-4--4--4--0----0--0--0--0--0--0--X-|
G|-6----6---6-6--6--6--2----2--2--2--2--2--2--X-|
D|-6----6---6-6--6--6--2----2--2--2--2--2--2--X-|
A|-4----4---4-4--4--4--0----0--0--0--0--0--0-(0)| 
E|-------------------------------------------(0)|

C| F#m                 Am                       |
e|-2----2---2-2--2--2--5----5--5--5--5--5--5--5-|
B|-2----2---2-2--2--2--5----5--5--5--5--5--5--5-|
G|-2----2---2-2--2--2--5----5--5--5--5--5--5--5-|
D|-4----4---4-4--4--4--7----7--7--7--7--7--7--7-|
A|-4----4---4-4--4--4--7----7--7--7--7--7--7--7-| 
E|-2----2---2-2--2--2--5----5--5--5--5--5--5--5-|

After this there's an interlude that goes:


C| Am              G#m             F#m                             |
e|-----------------------------------------------------------------|
B|-----------------------------------------------------------------|
G|-5-5-5-5-5-5-5-5-4-4-4-4-4-4-4-4-2-2-2-2-2-2-2-2-2-2-2-2-2-2-2-2-|
D|-7-7-7-7-7-7-7-7-6-6-6-6-6-6-6-6-4-4-4-4-4-4-4-4-4-4-4-4-4-4-4-4-|
A|-7-7-7-7-7-7-7-7-6-6-6-6-6-6-6-6-4-4-4-4-4-4-4-4-4-4-4-4-4-4-4-4-| 
E|-5-5-5-5-5-5-5-5-4-4-4-4-4-4-4-4-2-2-2-2-2-2-2-2-2-2-2-2-2-2-2-2-|
[ Tab from: http://www.guitartabs.cc/tabs/d/distillers/gallow_is_god_acoustic_tab.html ]
C| Am              G#m             F#m                             |
e|-----------------------------------------------------------------|
B|-----------------------------------------------------------------|
G|-5-5-5-5-5-5-5-5-4-4-4-4-4-4-4-4-2-2-2-2-2-2-2-2-2-2-2-2-2-2-2-2-|
D|-7-7-7-7-7-7-7-7-6-6-6-6-6-6-6-6-4-4-4-4-4-4-4-4-4-4-4-4-4-4-4-4-|
A|-7-7-7-7-7-7-7-7-6-6-6-6-6-6-6-6-4-4-4-4-4-4-4-4-4-4-4-4-4-4-4-4-| 
E|-5-5-5-5-5-5-5-5-4-4-4-4-4-4-4-4-2-2-2-2-2-2-2-2-2-2-2-2-2-2-2-2-|

C| Am              G#m             F#m                     C#5 B5  |
e|-----------------------------------------------------------------|
B|-----------------------------------------------------------------|
G|-5-5-5-5-5-5-5-5-4-4-4-4-4-4-4-4-2-2-2-2-2-2-2-2-2-2-2-2-6-6-4-4-|
D|-7-7-7-7-7-7-7-7-6-6-6-6-6-6-6-6-4-4-4-4-4-4-4-4-4-4-4-4-6-6-4-4-|
A|-7-7-7-7-7-7-7-7-6-6-6-6-6-6-6-6-4-4-4-4-4-4-4-4-4-4-4-4-4-4-2-2-| 
E|-5-5-5-5-5-5-5-5-4-4-4-4-4-4-4-4-2-2-2-2-2-2-2-2-2-2-2-2---------|

C| Am              G#m             F#m                             |
e|-----------------------------------------------------------------|
B|-----------------------------------------------------------------|
G|-5-5-5-5-5-5-5-5-4-4-4-4-4-4-4-4-2-2-2-2-2-2-2-2-2-2-2-2-2-2-2-2-|
D|-7-7-7-7-7-7-7-7-6-6-6-6-6-6-6-6-4-4-4-4-4-4-4-4-4-4-4-4-4-4-4-4-|
A|-7-7-7-7-7-7-7-7-6-6-6-6-6-6-6-6-4-4-4-4-4-4-4-4-4-4-4-4-4-4-4-4-| 
E|-5-5-5-5-5-5-5-5-4-4-4-4-4-4-4-4-2-2-2-2-2-2-2-2-2-2-2-2-2-2-2-2-|



Choruses 3 & 4:

C| C#5                       Em                          |
e|-4--4--4--4--4--4--4--4-4------------------------------|
B|-4--4--4--4--4--4--4--4-4--0--0--0--0--0--0--0--0--0-0-|
G|-6--6--6--6--6--6--6--6-6--0--0--0--0--0--0--0--0--0-0-|
D|-6--6--6--6--6--6--6--6-6--2--2--2--2--2--2--2--2--2-2-|
A|-4--4--4--4--4--4--4--4-4--2--2--2--2--2--2--2--2--2-2-| 
E|---------------------------0--0--0--0--0--0--0--0--0-0-|

C| Am                        F#m                         |
e|-5--5--5--5--5--5--5--5-5------------------------------|
B|-5--5--5--5--5--5--5--5-5--2--2--2--2--2--2--2--2--2-2-|
G|-5--5--5--5--5--5--5--5-5--2--2--2--2--2--2--2--2--2-2-|
D|-7--7--7--7--7--7--7--7-7--4--4--4--4--4--4--4--4--4-4-|
A|-7--7--7--7--7--7--7--7-7--4--4--4--4--4--4--4--4--4-4-| 
E|-5--5--5--5--5--5--5--5-5--2--2--2--2--2--2-2--2--2-2-|

Lyrics:

Oh how my heart it sings suicide,
Oh how my gallow sinks of black dye
Oh how my death march brings a tear to your eye,
Oh how the noose it swings when you die.
What a surprise, what is the price, what is the price, what is the price?
What a surprise, what is the price, what is the price, what is the price?
Oh how my heart it splits when you dumb my eyes,
Oh how my gallow sinks of red dye.
Oh how the noose it smiles when you lie,
Oh how my womb it licks when you dig deep inside.
What a surprise, what is the price, what is the price, what is the price?
What a surprise, what is the price, what is the price, what is the price?
Do you do it,oh yeah do you feel it,oh yeah do you sell it,oh yeah,do you need it,oh yeah
In the sun the willows give you shade
how they hang like a guillotine blade in the sun.
In the sun the willows give you shade
how they hang like a guillotine blade in the sun,
like a blade.
In the sun, like a blade.
What a surprise, what is the price, what is the price, what is the price?
What a surprise, what is the price, what is the price, what is the price?

|( ) Ghost Note
| /  slide up
| \  slide down
| h  hammer-on
| p  pull-off
| ~  vibrato
| +  harmonic
| x  Mute note
===============================================================================
Comments