Distillers - Drain The Blood Chords & Tabs

 

Drain The Blood Chords & Tabs

Distillers Chords & Tabs

Version: 5 Type: Tab 0 ratings
1 star 2 stars 3 stars 4 stars 5 stars
comments

Drain The Blood Tab

The Distillers - "Drain The Blood"
Album:  Drain The Blood    Tabed by: Jeremizzle
(Missing Solo 2)


Intro:
1|----------------|-----.----------|----------------|-----.----------|
2|---1---------.--|-X-1-1-------.--|-X-1---------.--|-X-1-1-------.--|
3|---2-----X-1-1--|-X-0-0---X-1-1--|-X-2-----X-1-1--|-X-0-0---X-1-1--|
4|---2-----X-2-2--|-X-2-2---X-2-2--|-X-2-----X-2-2--|-X-2-2---X-2-2--|
5|---------X-2-2--|-X-3-3---X-2-2--|---------X-2-2--|-X-3-3---X-2-2--|
6|----------------|----------------|----------------|----------------|


Verse:
1|----------------|-----.----------|---.------------|-----.----------|
2|-X-1---------.--|-X-1-1-------.--|-X-1---------.--|-X-1-1-------.--|
3|-X-2-----X-1-1--|-X-0-0---X-1-1--|-X-2-----X-1-1--|-X-0-0---X-1-1--|
4|-X-2-----X-2-2--|-X-2-2---X-2-2--|-X-2-----X-2-2--|-X-2-2---X-2-2--|
5|---------X-2-2--|-X-3-3---X-2-2--|---------X-2-2--|-X-3-3---X-2-2--|
6|----------------|----------------|----------------|----------------|


1|----------------|-----.----------|----------------|----------------|
2|-X-1---------.--|-X-1-1---X-1-1-1|----------------|----------------|
3|-X-2-----X-1-1--|-X-0-0---X-0-0-0|----------------|----------------|
4|-X-2-----X-2-2--|-X-2-2---X-2-2-2|-5-5-5-5-5-5-5-5|/6-6-6-6-6-6-6-6|
5|---------X-2-2--|-X-3-3---X-3-3-3|-5-5-5-5-5-5-5-5|/6-6-6-6-6-6-6-6|
6|----------------|----------------|-3-3-3-3-3-3-3-3|/4-4-4-4-4-4-4-4|
 |                |                |                |                |
1|----------------|----------------|----------------|----------------|
2|----------------|----------------|----------------|----------------|
3|----------------|----------------|----------------|----------------|
4|----------------|----------------|-5-5-5-5-5-5-5-5|/6-6-6-6-6-6-6-6|
5|----------------|----------------|-5-5-5-5-5-5-5-5|/6-6-6-6-6-6-6-6|
6|----------------|----------------|-3-3-3-3-3-3-3-3|/4-4-4-4-4-4-4-4|


1|----------------|-----.----------|----------------|-----.----------|
2|-X-1---------.--|-X-1-1-------.--|-X-1---------.--|-X-1-1-------.--|
3|-X-2-----X-1-1--|-X-0-0---X-1-1--|-X-2-----X-1-1--|-X-0-0---X-1-1--|
4|-X-2-----X-2-2--|-X-2-2---X-2-2--|-X-2-----X-2-2--|-X-2-2---X-2-2--|
5|---------X-2-2--|-X-3-3---X-2-2--|---------X-2-2--|-X-3-3---X-2-2--|
6|----------------|----------------|----------------|----------------|
 |                |                |                |                |
1|----------------|----------------|----------------|----------------|
2|-X-1------------|----------------|-X-1------------|----------------|
3|-X-2------------|----------------|-X-2------------|----------------|
4|-X-2------------|----------------|-X-2------------|----------------|
5|-------PM*******|**************--|-------PM*******|**************--|
6|-------5-5-5-5-4|-4-4-4-3-3-3-3--|-------5-5-5-5-4|-4-4-4-3-3-3-3--|


1|----------------|-----.----------|----------------|----------------|
2|-X-1---------.--|-X-1-1---X-1-1-1|----------------|----------------|
3|-X-2-----X-1-1--|-X-0-0---X-0-0-0|----------------|----------------|
4|-X-2-----X-2-2--|-X-2-2---X-2-2-2|-5-5-5-5-5-5-5-5|/6-6-6-6-6-6-6-6|
5|---------X-2-2--|-X-3-3---X-3-3-3|-5-5-5-5-5-5-5-5|/6-6-6-6-6-6-6-6|
6|----------------|----------------|-3-3-3-3-3-3-3-3|/4-4-4-4-4-4-4-4|
 |                |                |                |                |
1|----------------|----------------|----------------|----------------|
2|-X-1------------|----------------|----------------|----------------|
3|-X-2------------|----------------|----------------|----------------|
4|-X-2------------|----------------|-5-5-5-5-5-5-5-5|/6-6-6-6-6-6-6-6|
5|-------PM*******|**************--|-5-5-5-5-5-5-5-5|/6-6-6-6-6-6-6-6|
6|-------5-5-5-5-4|-4-4-4-3-3-3-3--|-3-3-3-3-3-3-3-3|/4-4-4-4-4-4-4-4|


Chorus:
1|----------------|----------------|----------------|----------------|
2|----------------|----------------|----------------|----------------|
3|-5-5-5-5-5-5-5-5|-5-5-5-5-5-5-5-5|----------------|----------------|
4|-5-5-5-5-5-5-5-5|-5-5-5-5-5-5-5-5|-5-5/7-7-7-7-7-7|-7-7-7-7-7-7-7-7|
5|-3-3-3-3-3-3-3-3|-3-3-3-3-3-3-3-3|-5-5/7-7-7-7-7-7|-7-7-7-7-7-7-7-7|
6|----------------|----------------|-3-3/5-5-5-5-5-5|-5-5-5-5-5-5-5-5|
 |                |                |                |                |
1|----------------|----------------|----------------|----------------|
2|----------------|----------------|----------------|----------------|
3|-5-5-5-5-5-5-5-5|-5-5-5-5-5-5-5-5|----------------|----------------|
4|-5-5-5-5-5-5-5-5|-5-5-5-5-5-5-5-5|-5-5/7-7-7-7-7-7|-7-7-7-7-7-7-7-7|
5|-3-3-3-3-3-3-3-3|-3-3-3-3-3-3-3-3|-5-5/7-7-7-7-7-7|-7-7-7-7-7-7-7-7|
6|----------------|----------------|-3-3/5-5-5-5-5-5|-5-5-5-5-5-5-5-5|


1|----------------|   |----------------|----------------|----------------|
2|----------------|   |----------------|----------------|----------------|
3|----------------|   |-5-5-5-5-5-5-5-5|-5-5-5-5-5-5-5-5|----------------|
4|-7-7-7/5-5-5-5--|   |-5-5-5-5-5-5-5-5|-5-5-5-5-5-5-5-5|-5-5-5-5-5-5-5-5|
5|-7-7-7/5-5-5-5--|   |-3-3-3-3-3-3-3-3|-3-3-3-3-3-3-3-3|-5-5-5-5-5-5-5-5|
6|-5-5-5/3-3-3-3--|   |----------------|----------------|-3-3-3-3-3-3-3-3|
 |                |X2 |                |                |                |
1|----------------|   |----------------|----------------|----------------|
2|----------------|   |----------------|----------------|----------------|
3|---------8/12---|   |-5-5-5-5-5-5-5-5|-5-5-5-5-5-5-5-5|----------------|
4|-7-7-7----------|   |-5-5-5-5-5-5-5-5|-5-5-5-5-5-5-5-5|-5-5-5-5-5-5-5-5|
5|-7-7-7----------|   |-3-3-3-3-3-3-3-3|-3-3-3-3-3-3-3-3|-5-5-5-5-5-5-5-5|
6|-5-5-5----------|   |----------------|----------------|-3-3-3-3-3-3-3-3|


1|----------------|
2|-----.---.------|
3|-----5---4---2-2|
4|-6-6-5---4---2-2|
5|-6-6-3---2---0-0|
6|-4-4------------|


Solo:
1|----------------|-----.----------|----------------|-----.----------|
2|-X-1---------.--|-X-1-1-------.--|-X-1---------.--|-X-1-1-------.--|
3|-X-2-----X-1-1--|-X-0-0---X-1-1--|-X-2-----X-1-1--|-X-0-0---X-1-1--|
4|-X-2-----X-2-2--|-X-2-2---X-2-2--|-X-2-----X-2-2--|-X-2-2---X-2-2--|
5|---------X-2-2--|-X-3-3---X-2-2--|---------X-2-2--|-X-3-3---X-2-2--|
6|----------------|----------------|----------------|----------------|
 |                |                |                |                |
1|----------------|----------------|----------------|----------------|
2|----------------|----------------|----------------|----------------|
3|----------------|----------------|----------------|----------------|
4|----------------|----------------|----------------|----------------|
5|-2~-------------|-2---0----------|-3-2-2-2-5-3-3-3|-7-5-5-5-8-7-7-7|
6|----------------|---------3---0--|----------------|----------------|


1|----------------|-----.----------|----------------|----------------|
2|-X-1---------.--|-X-1-1---X-1-1-1|----------------|----------------|
3|-X-2-----X-1-1--|-X-0-0---X-0-0-0|----------------|----------------|
4|-X-2-----X-2-2--|-X-2-2---X-2-2-2|-5-5-5-5-5-5-5-5|/6-6-6-6-6-6-6-6|
5|---------X-2-2--|-X-3-3---X-3-3-3|-5-5-5-5-5-5-5-5|/6-6-6-6-6-6-6-6|
6|----------------|----------------|-3-3-3-3-3-3-3-3|/4-4-4-4-4-4-4-4|
 |                |                |                |                |
1|----------------|----------------|----------------|-----------------|
2|----------------|----------------|----------------|-----------------|
3|----------------|----------------|----------------|/1313131313131313|
4|-10--9---7------|----------------|----------------|/X-X-X-X-X-X-X-X-|
5|-------------10-|-8---10--7------|-7-7-7-7-7-7-7-7|/1111111111111111|
6|----------------|----------------|----------------|-----------------|


1|----------------|-----.----------|----------------|-----.----------|
2|-X-1---------.--|-X-1-1-------.--|-X-1---------.--|-X-1-1-------.--|
3|-X-2-----X-1-1--|-X-0-0---X-1-1--|-X-2-----X-1-1--|-X-0-0---X-1-1--|
4|-X-2-----X-2-2--|-X-2-2---X-2-2--|-X-2-----X-2-2--|-X-2-2---X-2-2--|
5|---------X-2-2--|-X-3-3---X-2-2--|---------X-2-2--|-X-3-3---X-2-2--|
6|----------------|----------------|----------------|----------------|
 |                |                |                |                |
1|----------------|----------------|----------------|----------------|
2|-X-1------------|----------------|-X-1------------|----------------|
3|-X-2------------|----------------|-X-2------------|----------------|
4|-X-2------------|----------------|-X-2------------|----------------|
5|-------PM*******|**************--|-------PM*******|**************--|
6|-------5-5-5-5-4|-4-4-4-3-3-3-3--|-------5-5-5-5-4|-4-4-4-3-3-3-3--|

[ Tab from: http://www.guitartabs.cc/tabs/d/distillers/drain_the_blood_tab_ver_5.html ]
1|----------------|-----.----------|----------------|----------------|
2|-X-1---------.--|-X-1-1---X-1-1-1|----------------|----------------|
3|-X-2-----X-1-1--|-X-0-0---X-0-0-0|----------------|----------------|
4|-X-2-----X-2-2--|-X-2-2---X-2-2-2|-5-5-5-5-5-5-5-5|/6-6-6-6-6-6-6-6|
5|---------X-2-2--|-X-3-3---X-3-3-3|-5-5-5-5-5-5-5-5|/6-6-6-6-6-6-6-6|
6|----------------|----------------|-3-3-3-3-3-3-3-3|/4-4-4-4-4-4-4-4|
 |                |                |                |                |
1|----------------|----------------|----------------|----------------|
2|-X-1------------|----------------|----------------|----------------|
3|-X-2------------|----------------|----------------|----------------|
4|-X-2------------|----------------|-5-5-5-5-5-5-5-5|/6-6-6-6-6-6-6-6|
5|-------PM*******|**************--|-5-5-5-5-5-5-5-5|/6-6-6-6-6-6-6-6|
6|-------5-5-5-5-4|-4-4-4-3-3-3-3--|-3-3-3-3-3-3-3-3|/4-4-4-4-4-4-4-4|


Chorus:
1|----------------|----------------|----------------|----------------|
2|----------------|----------------|----------------|----------------|
3|-5-5-5-5-5-5-5-5|-5-5-5-5-5-5-5-5|----------------|----------------|
4|-5-5-5-5-5-5-5-5|-5-5-5-5-5-5-5-5|-5-5/7-7-7-7-7-7|-7-7-7-7-7-7-7-7|
5|-3-3-3-3-3-3-3-3|-3-3-3-3-3-3-3-3|-5-5/7-7-7-7-7-7|-7-7-7-7-7-7-7-7|
6|----------------|----------------|-3-3/5-5-5-5-5-5|-5-5-5-5-5-5-5-5|
 |                |                |                |                |
1|----------------|----------------|----------------|----------------|
2|----------------|----------------|----------------|----------------|
3|-5-5-5-5-5-5-5-5|-5-5-5-5-5-5-5-5|----------------|----------------|
4|-5-5-5-5-5-5-5-5|-5-5-5-5-5-5-5-5|-5-5/7-7-7-7-7-7|-7-7-7-7-7-7-7-7|
5|-3-3-3-3-3-3-3-3|-3-3-3-3-3-3-3-3|-5-5/7-7-7-7-7-7|-7-7-7-7-7-7-7-7|
6|----------------|----------------|-3-3/5-5-5-5-5-5|-5-5-5-5-5-5-5-5|


1|----------------|   |----------------|----------------|----------------|
2|----------------|   |----------------|----------------|----------------|
3|----------------|   |-5-5-5-5-5-5-5-5|-5-5-5-5-5-5-5-5|----------------|
4|-7-7-7/5-5-5-5--|   |-5-5-5-5-5-5-5-5|-5-5-5-5-5-5-5-5|-5-5-5-5-5-5-5-5|
5|-7-7-7/5-5-5-5--|   |-3-3-3-3-3-3-3-3|-3-3-3-3-3-3-3-3|-5-5-5-5-5-5-5-5|
6|-5-5-5/3-3-3-3--|   |----------------|----------------|-3-3-3-3-3-3-3-3|
 |                |X2 |                |                |                |
1|----------------|   |----------------|----------------|----------------|
2|----------------|   |----------------|----------------|----------------|
3|---------8/12---|   |-5-5-5-5-5-5-5-5|-5-5-5-5-5-5-5-5|----------------|
4|-7-7-7----------|   |-5-5-5-5-5-5-5-5|-5-5-5-5-5-5-5-5|-5-5-5-5-5-5-5-5|
5|-7-7-7----------|   |-3-3-3-3-3-3-3-3|-3-3-3-3-3-3-3-3|-5-5-5-5-5-5-5-5|
6|-5-5-5----------|   |----------------|----------------|-3-3-3-3-3-3-3-3|


1|----------------|
2|-----.---.------|
3|-----5---4---2-2|
4|-6-6-5---4---2-2|
5|-6-6-3---2---0-0|
6|-4-4------------|


Bridge thingy:
1|-----.-------.--|-----.-------.--|----------------|----------------|
2|-X-1-1---X-1-1--|-X-1-1---X-1-1--|-------------.--|-------------.--|
3|-X-2-2---X-2-2--|-X-2-2---X-2-2--|-X-1-1---X-1-1--|-X-1-1---X-1-1--|
4|-X-2-2---X-2-2--|-X-2-2---X-2-2--|-X-2-2---X-2-2--|-X-2-2---X-2-2--|
5|----------------|----------------|-X-2-2---X-2-2--|-X-2-2---X-2-2--|
6|----------------|----------------|----------------|----------------|


1|----------------|----------------|----------------|----------------|
2|----------------|----------------|----------------|----------------|
3|-----.-------.--|-----.-------.--|-----.-------.--|-----.-------.--|
4|-X-3-3---X-3-3--|-X-3-3---X-3-3--|-X-5-5---X-5-5--|-X-6-6---X-6-6--|
5|-X-3-3---X-3-3--|-X-3-3---X-3-3--|-X-5-5---X-5-5--|-X-6-6---X-6-6--|
6|-X-1-1---X-1-1--|-X-1-1---X-1-1--|-X-3-3---X-3-3--|-X-4-4---X-4-4--|
 |                |                |                |                |
1|----------------|----------------|----------------|----------------|
2|----------------|----------------|----------------|----------------|
3|-PM*************|****************|****************|**************--|
4|-X-3-3---X-3-3--|-X-3-3---X-3-3--|-X-5-5---X-5-5--|-X-6-6---X-6-6--|
5|-X-3-3---X-3-3--|-X-3-3---X-3-3--|-X-5-5---X-5-5--|-X-6-6---X-6-6--|
6|-X-1-1---X-1-1--|-X-1-1---X-1-1--|-X-3-3---X-3-3--|-X-4-4---X-4-4--|


1|-----.-------.--|-----.-------.--|----------------|----------------|
2|-X-1-1---X-1-1--|-X-1-1---X-1-1--|-------------.--|-------------.--|
3|-X-2-2---X-2-2--|-X-2-2---X-2-2--|-X-1-1---X-1-1--|-X-1-1---X-1-1--|
4|-X-2-2---X-2-2--|-X-2-2---X-2-2--|-X-2-2---X-2-2--|-X-2-2---X-2-2--|
5|----------------|----------------|-X-2-2---X-2-2--|-X-2-2---X-2-2--|
6|----------------|----------------|----------------|----------------|


1|----------------|----------------|----------------|----------------|
2|----------------|----------------|----------------|----------------|
3|-----.-------.--|-----.-------.--|-----.-------.--|-----.-------.--|
4|-X-3-3---X-3-3--|-X-3-3---X-3-3--|-X-5-5---X-5-5--|-X-6-6---X-6-6--|
5|-X-3-3---X-3-3--|-X-3-3---X-3-3--|-X-5-5---X-5-5--|-X-6-6---X-6-6--|
6|-X-1-1---X-1-1--|-X-1-1---X-1-1--|-X-3-3---X-3-3--|-X-4-4---X-4-4--|


1|-----.-------.--|-----.-------.--|----------------|----------------|
2|-X-1-1---X-1-1--|-X-1-1---X-1-1--|-------------.--|-------------.--|
3|-X-2-2---X-2-2--|-X-2-2---X-2-2--|-X-1-1---X-1-1--|-X-1-1---X-1-1--|
4|-X-2-2---X-2-2--|-X-2-2---X-2-2--|-X-2-2---X-2-2--|-X-2-2---X-2-2--|
5|----------------|----------------|-X-2-2---X-2-2--|-X-2-2---X-2-2--|
6|----------------|----------------|----------------|----------------|


1|----------------|----------------|----------------|----------------|
2|----------------|----------------|----------------|----------------|
3|-----.-------.--|-----.-------.--|---.------------|----------------|
4|-X-3-3---X-3-3--|-X-3-3---X-3-3--|-X-5------------|----------------|
5|-X-3-3---X-3-3--|-X-3-3---X-3-3--|-X-5------------|----------------|
6|-X-1-1---X-1-1--|-X-1-1---X-1-1--|-X-3------------|----------------|


1|----------------|----------------|
2|----------------|----------------|
3|----------------|----------------|
4|----------------|----------------|
5|----------------|----------------|
6|----------------|----------------|


Ending:
1|----------------|----------------|----------------|----------------|
2|----------------|----------------|----------------|----------------|
3|-5-5-5-5-5-5-5-5|-5-5-5-5-5-5-5-5|----------------|----------------|
4|-5-5-5-5-5-5-5-5|-5-5-5-5-5-5-5-5|-5-5/7-7-7-7-7-7|-7-7-7-7-7-7-7-7|
5|-3-3-3-3-3-3-3-3|-3-3-3-3-3-3-3-3|-5-5/7-7-7-7-7-7|-7-7-7-7-7-7-7-7|
6|----------------|----------------|-3-3/5-5-5-5-5-5|-5-5-5-5-5-5-5-5|
 |                |                |                |                |
1|----------------|----------------|----------------|----------------|
2|----------------|----------------|----------------|----------------|
3|-5-5-5-5-5-5-5-5|-5-5-5-5-5-5-5-5|----------------|----------------|
4|-5-5-5-5-5-5-5-5|-5-5-5-5-5-5-5-5|-5-5/7-7-7-7-7-7|-7-7-7-7-7-7-7-7|
5|-3-3-3-3-3-3-3-3|-3-3-3-3-3-3-3-3|-5-5/7-7-7-7-7-7|-7-7-7-7-7-7-7-7|
6|----------------|----------------|-3-3/5-5-5-5-5-5|-5-5-5-5-5-5-5-5|


1|----------------|   |----------------|----------------|----------------|
2|----------------|   |----------------|----------------|----------------|
3|----------------|   |-5-5-5-5-5-5-5-5|-5-5-5-5-5-5-5-5|----------------|
4|-7-7-7/5-5-5-5--|   |-5-5-5-5-5-5-5-5|-5-5-5-5-5-5-5-5|-5-5-5-5-5-5-5-5|
5|-7-7-7/5-5-5-5--|   |-3-3-3-3-3-3-3-3|-3-3-3-3-3-3-3-3|-5-5-5-5-5-5-5-5|
6|-5-5-5/3-3-3-3--|   |----------------|----------------|-3-3-3-3-3-3-3-3|
 |                |X4 |                |                |                |
1|----------------|   |----------------|----------------|----------------|
2|----------------|   |----------------|----------------|----------------|
3|---------8/12---|   |-5-5-5-5-5-5-5-5|-5-5-5-5-5-5-5-5|----------------|
4|-7-7-7----------|   |-5-5-5-5-5-5-5-5|-5-5-5-5-5-5-5-5|-5-5-5-5-5-5-5-5|
5|-7-7-7----------|   |-3-3-3-3-3-3-3-3|-3-3-3-3-3-3-3-3|-5-5-5-5-5-5-5-5|
6|-5-5-5----------|   |----------------|----------------|-3-3-3-3-3-3-3-3|


1|----------------|
2|-----.---.------|
3|-----5---4---2-2|
4|-6-6-5---4---2-2|
5|-6-6-3---2---0-0|
6|-4-4------------| Let ring...


Thats pretty much the whole song except for the 2nd solo.  I seperated guitar 1
and 2 with "|" in between the measures on top and on the bottom.  Guitar 1 is on
top Guitar 2 is on the bottom.  All even "-" are 8th notes.  All chords are played
with "down, up picking".  In the ending of the solo the notes are "11" and "13"
not "1" and "3".  Also in the solo those are "10" not "1" and "0".  On the silent
part of the song I guessed on the timeing so that may not be right

Legend:
"."   = quick note/chord
"pm*" = Palm mute
"X"   = mute
"~"   = bend up and down
"/"   = slide
Comments