Distillers - Drain The Blood Chords & Tabs

 

Drain The Blood Chords & Tabs

Distillers Chords & Tabs

Version: 4 Type: Tab 0 ratings
1 star 2 stars 3 stars 4 stars 5 stars
comments

Drain The Blood Tab

   
---------------------------------------------------------------------------
                DRAIN THE BLOOD- The Distillers
---------------------------------------------------------------------------


Tuning: Standard

 Intro/verse        (Repeat)
e|----------------------------|--------------------------------------------|
B|-1---0-0-0---1-1-1---0-0-0-x|--------------------------------------------|
G|-2-x-1-1-1-x-0-0-0-x-0-0-0-x|--------------------------------------------|
D|-2-x-2-2-2-x-2-2-2-x-0-0-0-x|--5-------5/6-6-6-6-------------------------|
A|-0-x-2-2-2-x-3-3-3-x-2-2-2-x|--5-(x7)--5/6-6-6-6-------------------------|
E|----------------------------|--3-------3/4-4-4-4-------------------------|

[ Tab from: http://www.guitartabs.cc/tabs/d/distillers/drain_the_blood_tab_ver_4.html ]
    Chorus                Lead Fill    Solo
e|----------------------|--------|  e|-------------------------------------|
B|----------------------|-10-----|  B|-------------------------------------|
G|-5----------2---------|-12b14--|  G|-------------------------------------|
D|-5-(x15)----2-(x15)---|--------|  D|-2--2-0------------------------------|
A|-3----------0---------|--------|  A|--------3-0--3-2-2-2-5-3-3-3-7-5-5-5-|
E|----------3-----------|--------|  E|-------------------------------------|

 Solo(cont.)
e|-------------------------------------------------------------------------|
B|-------------------------------------------------------------------------|
G|----------------------------------13-13-13-13-13-------------------------|
D|-----------10-9-7------------------x--x--x--x--x-------------------------|
A|-8-7-7-5----------10-8-10-7--7777/11-11-11-11-11-------------------------|
E|-------------------------------------------------------------------------|


 Bridge                PM________________________________________
e|-------------------------------------------------------------------------|
B|-1-1-1-1-1---------------------------------------------------------------|
G|-2-2-2-2-2-1-1-1-1-1-----------------------------------------------------|
D|-2-2-2-2-2-2-2-2-2-2-----------------------------------------------------|
A|-0-0-0-0-0-2-2-2-2-2-3-3-3-3-3-5-5-5-5-5-6-6-6-6-6-7-7-7-7-7-7-----------|
E|-----------0-0-0-0-0-1-1-1-1-1-3-3-3-3-3-4-4-4-4-4-5-5-5-5-5-5-----------|
          Repeat this a few times and then play the chorus until the end.
                                                          
  Key:
 B=Bend
 X=Muted string
 PM= Palm Mute
 /=Slide
Comments