Distillers - Drain The Blood Chords & Tabs

 

Drain The Blood Chords & Tabs

Distillers Chords & Tabs

Version: 2 Type: Tab 0 ratings
1 star 2 stars 3 stars 4 stars 5 stars
comments

Drain The Blood Tab

The Distillers - Drain The Blood


Tabbed by SchmukDude a.k.a. Scotty. Any feedback would be cool.
Email me at HiVoltageUK@hotmail.com

Standard Tuning


Verse

e|-0-0--0-0-0--0-0-0--0-0-0--0---------------------------------------------|
B|-1-1--1-0-0--0-1-1--1-0-0--0---------------------------------------------|
G|-2-2--2-1-1--1-0-0--0-1-1--1------------Repeat As Necessary--------------|
D|-2-2--2-2-2--2-2-2--2-2-2--2---------------------------------------------|
A|-0-0--0---------------2-2--2---------------------------------------------|
E|----------------------0-0--0---------------------------------------------|

Pre-chorus

e|-------------------------------------------------------------------------|
B|-------------------------------------------------------------------------|
G|------------------4-4-4-4-4-4-4-4----------------------------------------|
D|-5-5-5-5-5-5-5-5--4-4-4-4-4-4-4-4----------------------------------------|
A|-5-5-5-5-5-5-5-5--2-2-2-2-2-2-2-2----------------------------------------|
E|-3-3-3-3-3-3-3-3---------------------------------------------------------|
 
Chorus

e|-------------------------------------------------------------------------|
B|-------------------------------------------------------------------------|
G|-5-----------------------------------------------------------------------|
D|-5--(x13)--5--7---------5--(x2)--(First Chorus goes straight to..)-------|
A|-3---------5--7--(x13)--5------------------------------------------------|
E|-----------3--5---------3------------------------------------------------|

Post Chorus

e|-------------------------------------------------------------------------|
B|-------------------------------------------------------------------------|
G|--5-----------------------5--4-------------------------------------------|
D|--5--(x16)--5--------6-6--5--4-------------------------------------------|
A|--3---------5--(x8)--6-6--3--2-------------------------------------------|
E|------------3--------4-4-------------------------------------------------|

Chorus 2
[ Tab from: http://www.guitartabs.cc/tabs/d/distillers/drain_the_blood_tab_ver_2.html ]
e|-------------------------------------------------------------------------|
B|-------------------------------------------------------------------------|
G|-5-----------------------------------------------------------------------|
D|-5--(x13)--5--7---------5------------------------------------------------|
A|-3---------5--7--(x13)--5--(x3)------------------------------------------|
E|-----------3--5---------3------------------------------------------------|

Bridge

e|-0-0--0-0-0--0-0-0--0-0-0--0-0-0--0-0-0--0-0-0--0-0-0--------------------|
B|-1-1--1-1-1--1-1-1--1-1-1--1-0-0--0-0-0--0-0-0--0-0-0--------------------|
G|-2-2--2-2-2--2-2-2--2-2-2--2-1-1--1-1-1--1-1-1--1-1-1--------------------|
D|-2-2--2-2-2--2-2-2--2-2-2--2-2-2--2-2-2--2-2-2--2-2-2--------------------|
A|-0-0--0-0-0--0-0-0--0-0-0--0---------------------------------------------|
E|-------------------------------------------------------------------------|

e|-0-----------------------------------------------------------------------|
B|-0-----------------------------------------------------------------------|
G|-1-----------------------------------------------------------------------|
D|-2-3-3--3-3-3--3-3-3--3-3-3--3-5-5--5-5-5--5-6-6--6-6-6--6---------------|
A|---3-3--3-3-3--3-3-3--3-3-3--3-5-5--5-5-5--5-6-6--6-6-6--6--(x2)---------|
E|---1-1--1-1-1--1-1-1--1-1-1--1-3-3--3-3-3--3-4-4--4-4-4--4---------------|
 
e|-0-0--0-0-0--0-0-0--0-0-0--0-0-0--0-0-0--0-0-0--0-0-0--------------------|
B|-1-1--1-1-1--1-1-1--1-1-1--1-0-0--0-0-0--0-0-0--0-0-0--------------------|
G|-2-2--2-2-2--2-2-2--2-2-2--2-1-1--1-1-1--1-1-1--1-1-1--------------------|
D|-2-2--2-2-2--2-2-2--2-2-2--2-2-2--2-2-2--2-2-2--2-2-2--------------------|
A|-0-0--0-0-0--0-0-0--0-0-0--0---------------------------------------------|
E|-------------------------------------------------------------------------|

e|-0-----------------------------------------------------------------------|
B|-0-----------------------------------------------------------------------|
G|-1-----------------------------------------------------------------------|
D|-2-3-3--3-3-3--3-3-3--3-3-3--3-5-----------------------------------------|
A|---3-3--3-3-3--3-3-3--3-3-3--3-5--(Stop)---------------------------------|
E|---1-1--1-1-1--1-1-1--1-1-1--1-3-----------------------------------------|

-Order-

Verse
Pre-chorus
Verse
Pre-chorus
Chorus
Post-chorus
Verse
Pre-chorus
Verse
Pre-chorus
Chorus 2
Post-chorus
Bridge
Chorus Repeat
Post-chorus, let last chord ring.
Comments