Distillers - Drain The Blood Chords & Tabs

 

Drain The Blood Chords & Tabs

Distillers Chords & Tabs

Version: 1 Type: Tab 0 ratings
1 star 2 stars 3 stars 4 stars 5 stars
comments

Drain The Blood Tab

   
-------------------------------------------------------------------------------
			     Drain The Blood - The Distillers
-------------------------------------------------------------------------------
Tabbed by: Tiffany
Email: psycho_skater411@hotmail.com

Tuning: Standard


INTRO/VERSE

e|-0-0--0-0-0--0-0-0--0-0-0--------------------------------------------------|
B|-1-1--0-0-0--1-1-1--0-0-0--------------------------------------------------|
G|-2-2--1-1-1--2-2-2--1-1-1--------------------------------------------------|
D|-2-2--2-2-2--2-2-2--2-2-2--------------------------------------------------|
A|---------------------------------------------------------------------------|
E|---------------------------------------------------------------------------|

Transition

e|---------------------------------------------------------------------------|
B|---------------------------------------------------------------------------|
G|-----------------4-4-4-4-4-4-4-4-------------------------------------------|
D|-5-5-5-5-5-5-5-5-4-4-4-4-4-4-4-4-------------------------------------------|
A|-5-5-5-5-5-5-5-5-2-2-2-2-2-2-2-2-------------------------------------------|
E|-3-3-3-3-3-3-3-3-----------------------------------------------------------|
 PM...............

Chorus

e|---------------------------------------------------------------------------|
B|---------------------------------------------------------------------------|
G|-5-5-5-5-5-5-5---------------------5-5-5-5-5-5-5---------------------------|
D|-5-5-5-5-5-5-5--5--3-3-3-3-3-3-3-3-5-5-5-5-5-5-5--5--3-3-3-3-3-3-3-3-------|
A|-3-3-3-3-3-3-3--5--3-3-3-3-3-3-3-3-3-3-3-3-3-3-3--5--3-3-3-3-3-3-3-3-------|
E|----------------3--5-5-5-5-5-5-5-5----------------3--5-5-5-5-5-5-5-5-------|

BRIDGE
[ Tab from: http://www.guitartabs.cc/tabs/d/distillers/drain_the_blood_tab.html ]
e|-0-0--0-0-0--0-0-0--0-0-0--0-0-0--0-0-0--0-0-0--0-0-0----------------------|
B|-1-1--1-1-1--1-1-1--1-1-1--0-0-0--0-0-0--0-0-0--0-0-0----------------------|
G|-2-2--2-2-2--2-2-2--2-2-2--1-1-1--1-1-1--1-1-1--1-1-1----------------------|
D|-2-2--2-2-2--2-2-2--2-2-2--2-2-2--2-2-2--2-2-2--2-2-2----------------------|
A|---------------------------------------------------------------------------|
E|---------------------------------------------------------------------------|

e|---------------------------------------------------------------------------|
B|---------------------------------------------------------------------------|
G|---------------------------------------------------------------------------|
D|-5-5-5--5-5-5--5-5-5--5-5-5--6-6-6--6-6-6--7-7-7--7-7-7--------------------|
A|-5-5-5--5-5-5--5-5-5--5-5-5--6-6-6--6-6-6--7-7-7--7-7-7--------------------|
E|-3-3-3--3-3-3--3-3-3--3-3-3--4-4-4--4-4-4--5-5-5--5-5-5--------------------|
 PM......................................................

e|---------------------------------------------------------------------------|
B|---------------------------------------------------------------------------|
G|---------------------------------------------------------------------------|
D|-7-7-7--7-7-7--7-7-7--7-7-7--2-2-2--2-2-2--2-2-2--2-2-2--------------------|
A|-7-7-7--7-7-7--7-7-7--7-7-7--2-2-2--2-2-2--2-2-2--2-2-2--------------------|
E|-5-5-5--5-5-5--5-5-5--5-5-5--0-0-0--0-0-0--0-0-0--0-0-0--------------------|
 PM......................................................

e|---------------------------------------------------------------------------|
B|---------------------------------------------------------------------------|
G|---------------------------------------------------------------------------|
D|-5-5-5--5-5-5--5-5-5--5-5-5--6-6-6--6-6-6--7-7-7--7-7-7--------------------|
A|-5-5-5--5-5-5--5-5-5--5-5-5--6-6-6--6-6-6--7-7-7--7-7-7--------------------|
E|-3-3-3--3-3-3--3-3-3--3-3-3--4-4-4--4-4-4--5-5-5--5-5-5--------------------|
 PM......................................................



| /  slide up
| \  slide down
| h  hammer-on
| p  pull-off
| ~  vibrato
| +  harmonic
| x  Mute note
===============================================================================
Comments