Distillers - City Of Angels Chords & Tabs

 

City Of Angels Chords & Tabs

Distillers Chords & Tabs

Version: 1 Type: Tab 0 ratings
1 star 2 stars 3 stars 4 stars 5 stars
comments

City Of Angels Tab

Taken from thedistillers.net


City of Angels
[ Tab from: http://www.guitartabs.cc/tabs/d/distillers/city_of_angels_tab.html ]
tabbed by kelly. Complaints to kellydeathless@yahoo.com. complain, and ill have your head. 
im only putting the basics down because I think you should learn some on your own. 
Put on headphones and listen for the details.
 
opening: 
e|--------------------------------|
B|--------------------------------| 
G|----------7------------------9--| 
D|-5--4--5--7--4--5---7--6--7--9--| 
A|-5--4--5--5--4--5---7--6--7--7--| 
El-3--2--3-----2--3---5--4--5-----|
 
verse: 
e|------------------|
B|------------------|
G|-12------14-------| 
D|-12--12--14---14--| 
A|-10--12--12---14--|
E|------10------12--| 
 
chorus: 
e|---------------|
B|---------------|
G|----7-------9--| 
D|-5--7---7---9--| 
A|-5--5---7---7--|
E|-3------5------|



Comments