Distillers - Cincinnati Chords & Tabs

 

Cincinnati Chords & Tabs

Distillers Chords & Tabs

Version: 1 Type: Tab 0 ratings
1 star 2 stars 3 stars 4 stars 5 stars
comments

Cincinnati Tab

   
Cincinnati
The Distillers


     A            D
I've been to your town

	G D   A
Ain't nobody around
     A            D
I've been to your city

Ain't no city like Cincinnati
[ Tab from: http://www.guitartabs.cc/tabs/d/distillers/cincinnati_tab.html ]
E-------------------------------------------|
B-------------------------------------------|
G-------------------------------------------|
D-------------------------------------------|
A---------------5-5-5-5-5-5-5---------------|
E-3-3-3-3-3-3-3---------------5-5-5-5-5-5-5-|

E--------------------------------------------------------------|
B--------------------------------------------------------------|
G--------------------------------------------------------------|
D--------------------------------------------------------------|
A------------------5-5-5-5-5-5-5---------5-5-5-5---------------|
E -5-5-5-5-5-5-5-----------------3-3-3-3---------5-5-5-5-5-5-5-|
Comments