Distillers - Ask The Angels Chords & Tabs

 

Ask The Angels Chords & Tabs

Distillers Chords & Tabs

Version: 2 Type: Tab 0 ratings
1 star 2 stars 3 stars 4 stars 5 stars
comments

Ask The Angels Tab

   
-------------------------------------------------------------------------------
			     Ask The Angels - The Distillers
-------------------------------------------------------------------------------
Tabbed by:Keri
AIM: Roxysnow88

Tuning:Standard

here are the solos  ( i think they are somewhat correct)

**try and bend and slide where necessary
b=bend

s=slide

solo # 1                     (sounds like it may be half a step higher at this part, but 
bend using this way)
e|-------------------20b-16-18---------18-18-16-----16-18-16-18b-16----------|
B|----18--20--21--------------------------------18-------------------18------|
G|---------------------------------------------------------------------------|
D|---------------------------------------------------------------------------|
A|---------------------------------------------------------------------------|
E|---------------------------------------------------------------------------|
[ Tab from: http://www.guitartabs.cc/tabs/d/distillers/ask_the_angels_tab_ver_2.html ]
e|-------------------------------------------(bend/slide upwards around here)---|
B|------------------------------------------------------------------------------|
G|-----------------8--------------------8--8b--10b--12b-13b-15b-17b?-s-20-21b---|
D|----10----8--10--------10------8--10------------------------------------------|
A|-------11------------------11-------------------------------------------------|
E|------------------------------------------------------------------------------|


solo #2
e|----(hit 18 about seven times)---------------------------------------------|
B|---18b--16-----------------------------------------------------------------|
G|------------13--15b(16)-15--15------------------------13----13----13-15----|
D|-------------------------------15-15-15-15--13-14-15-----15----15----------|
A|---------------------------------------------------------------------------|
E|---------------------------------------------------------------------------|

e|---------------------------------------------------------------------------|
B|------------------13----13----13----13--------------s?-18--s-20b-----------|
G|--15-14-13-14--15----15----15----15----15-15--15---------------------------|
D|---------------------------------------------------------------------------|
A|---------------------------------------------------------------------------|
E|---------------------------------------------------------------------------|

| /  slide up
| \  slide down
| h  hammer-on
| p  pull-off
| ~  vibrato
| +  harmonic
| x  Mute note
===============================================================================
Comments