Dissection - Crimson Towers Chords & Tabs

 

Crimson Towers Chords & Tabs

Dissection Chords & Tabs

Version: 1 Type: Tab 0 ratings
1 star 2 stars 3 stars 4 stars 5 stars
comments

Crimson Towers Tab

   
/-------------------------------------------------------------------------- 
/ The following is the author's own interpertation of the song, to be used/ 
/ for private use and studying                                            / 
/-------------------------------------------------------------------------- 
                         DISSECTION - CRIMSON TOWERS  
                         From the Album SOMBERLAIN 
                         Copyright 1993 No Fashion Records 
                               
                              Version 1.1 - June 98 
                                   
Transcribed by: Richard Broadhead II (Displacer) and brougt to 
Guitartab Universe bu MangieNo1
Thanks to Jeremy Disten for bringing to my attention an error
For Questions, Comments, Corrections, or Newest Version;  
               please contact Rich Broadhead at rich@dsrmusic.com 
 
 
Check Out My Web Page, With More Transcriptions On It: 
               http://www.dsrmusic.com/metaltab 
 
p  - pull off                   h  - hammer on  
~  - vibrato                    /  - slide up to 
 
Tuning: Normal (EADGBE)  
 
Riff A                                   
|-------------|-------------|-------------|-------------| 
|-1-0h1p0---0-|-3-1h3p1-0---|-1-0h1p0---0-|-1-0h1p0-----| 
|---------2---|-----------2-|---------0---|---------2-1-| 
|-------------|-3-------3---|-------------|-------------| 
|-0-------0---|-------------|-------------|-------------| 
|-------------|-------------|-3-------3---|-1-------0---| 
                                            (End Riff A) 


Play Riff A again

[ Tab from: http://www.guitartabs.cc/tabs/d/dissection/crimson_towers_tab.html ]
Riff B1                             
|-------------|-----0---|---------|-------------| 
|-1-0h1p0---0-|-3-------|-6-5-3---|-5-3h5p3-1-0-| 
|---------2---|---0---2-|---------|-------------| 
|-------------|---------|---------|---------2-0-| 
|-0-------0---|-2---3---|-5---2---|-------------| 
|-------------|---------|---------|-0-----------| 
 
|-------------|-----0---|-----------|-----------| 
|-1-0h1p0---0-|-3-------|-6-5h6p5-3-|-5-3-1-0---| 
|---------2---|---0---2-|-----------|-----------| 
|-------------|---------|-0---------|-----2-0---| 
|-0-------0---|-2---3---|---------2-|-----------| 
|-------------|---------|-----------|-0---------| 
                                   (End Riff B1) 
 
 
Riff C1                                 
|-------------|-----------|-------------|-----------| 
|-1-0h1p0---0-|-1---------|-1-0h1p0---0-|-1---------| 
|---------2---|---2-2/5-4-|---------2---|---2-4-1---| 
|-------------|-----------|-------------|-----------| 
|-0-------0---|-----------|-0-------0---|-----------| 
|-------------|-1---0-----|-------------|-1---0-----| 
                                       (End Riff C1) 
                                                      
  
Play Riff A 2 times 
 
Riff B2 
|-------------|-----0---|-----------|---------------| 
|-1-0h1p0---0-|-3-------|--6-5-3----|--5-3h5p3-1-0--| 
|---------2---|---0---2-|-----------|---------------| 
|-------------|---------|-----------|----------2-0--| 
|-0-------0---|-2---3---|--5---2----|---------------| 
|-------------|---------|-----------|--0------------| 
 
|-------------|-----0---|-----------|---------------| 
|-1-0h1p0---0-|-3-------|--6-5-3----|--5-3h5p3-1-0--| 
|---------2---|---0---2-|-----------|---------------| 
|-------------|---------|-----------|----------2-0--| 
|-0-------0---|-2---3---|--5---2----|---------------| 
|-------------|---------|-----------|--0------------| 
                                       (End Riff B2) 
 
Riff C2                                 
|-------------|-----------|-------------|-------------| 
|-1-0h1p0---0-|-1---------|-1-0h1p0---0-|-1-----------| 
|---------2---|---2-2/5-4-|---------2---|---2-4-1-1h2-| 
|-------------|-----------|-------------|-------------| 
|-0-------0---|-----------|-0-------0---|---------0---| 
|-------------|-1---0-----|-------------|-1---0-------| 
                                         (End Riff C2) 
 
 
For Questions, Comments, Corrections, or Newest Version;  
               please contact Rich Broadhead at rich@dsrmusic.com 
 
Check Out My Web Page, With More Transcriptions On It: 
               http://www.dsrmusic.com/metaltab 
 


Comments