Dispatch - What Do You Wanna Be Chords & Tabs

 

What Do You Wanna Be Chords & Tabs

Dispatch Chords & Tabs

Version: 1 Type: Tab 0 ratings
1 star 2 stars 3 stars 4 stars 5 stars
comments

What Do You Wanna Be Tab

   
Dispatch/One Fell Swoop
Four-Day Trials
What Do You Wanna Be
Tabbed by Owen Sakovics
www.tabsinonefellswoop.com

--------------------------------------------------|
--------------------------------------------------|
-------6--6---6-------6--9-9-9-6--------6--9-6-9--|	x1
------------6-------------------------------------|
--------------------------------------------------|
-7h8h9-----------7h8h9------------7h8h9-----------|


**PLAYED WITH SLIGHT VARIATIONS**
			 			    B
-------------------------------------------------------|
-------------------------------------------------------|
-------6--6---9--------6--9-9-9-6--------6--6---6------|	x2
------------6---------------------------------6--------|
----------------------------------------------------9--|
-7h8h9-----------7h8h9-------------7h8h9------------7--|

**BASS**

**PLAYED WITH SLIGHT VARIATIONS**
			 			    B
-------------------------------------------------------|
-------------------------------------------------------|
-------6--6---9--------6--9-9-9-6--------6--6---6------|	x2
------------6---------------------------------6--------|
----------------------------------------------------9--|
-7h8h9-----------7h8h9-------------7h8h9------------7--|


 E   C#m E   C#m E   C#m B
-4---4---4---4---4---4---2--|
-5---5---5---5---5---5---4--|
-4---6---4---6---4---6---4--|	x2
-6---6---6---6---6---6---4--|
----------------------------|
----------------------------|

 E   C#m E   B 	 E   C#m E   B 	 E   C#m E   B 	 C#m
-4---4---4---2---4---4---4---2---4---4---4---2---4--|
-5---5---5---4---5---5---5---4---5---5---5---4---5--|
-4---6---4---4---4---6---4---4---4---6---4---4---6--|	x2
-6---6---6---4---6---6---6---4---6---6---6---4---6--|
----------------------------------------------------|
----------------------------------------------------|
[ Tab from: http://www.guitartabs.cc/tabs/d/dispatch/what_do_you_wanna_be_tab.html ]
**PLAYED WITH SLIGHT VARIATIONS**
			 			    B
-------------------------------------------------------|
-------------------------------------------------------|
-------6--6---9--------6--9-9-9-6--------6--6---6------|	x4
------------6---------------------------------6--------|
----------------------------------------------------9--|
-7h8h9-----------7h8h9-------------7h8h9------------7--|

 C#m	C#m	C#m	B
-4------4-------4-------2--|
-5------5-------5-------4--|
-6------6-------6-------4--|	x2
-6------6-------6-------4--|
---------------------------|
---------------------------|

 E   C#m E   B 	 E   C#m E   B 	 E   C#m E   B 	 C#m
-4---4---4---2---4---4---4---2---4---4---4---2---4--|
-5---5---5---4---5---5---5---4---5---5---5---4---5--|
-4---6---4---4---4---6---4---4---4---6---4---4---6--|	x2
-6---6---6---4---6---6---6---4---6---6---6---4---6--|
----------------------------------------------------|
----------------------------------------------------|

 C#m	C#m	C#m	C#m
-4------4-------4-------4--|
-5------5-------5-------5--|
-6------6-------6-------6--|	x4
-6------6-------6-------6--|
-4------4-------4-------4--|
---------------------------|

 E   C#m E   B 	 E   C#m E   B 	 E   C#m E   B 	 C#m
-4---4---4---2---4---4---4---2---4---4---4---2---4--|
-5---5---5---4---5---5---5---4---5---5---5---4---5--|
-4---6---4---4---4---6---4---4---4---6---4---4---6--|	x2
-6---6---6---4---6---6---6---4---6---6---6---4---6--|
----------------------------------------------------|
----------------------------------------------------|

						  	C#m
--------------------------------------------------------4--|
--------------------------------------------------------5--|
-------------------------------6---------9-9-9-6--------6--|	x1
-----------------------------6--------------------------6--|
--------------------------------------------------------4--|
-7h9------7h8h9------7h8h9--------7h8h9--------------------|
Comments