Dispatch - Walk With You Chords & Tabs

 

Walk With You Chords & Tabs

Dispatch Chords & Tabs

Version: 2 Type: Tab 0 ratings
1 star 2 stars 3 stars 4 stars 5 stars
comments

Walk With You Tab

?Walk with You?
Dispatch
Tabbed by Mike ?VsG?
mLynch20@mac.com

CAPO ON 2nd FRET

INTRO:
PART I: x2
e-----0h2------0h2-----0h2-------0h2p0---|
B----3---3----3-------3---3-----3-----3--|
G---2-----2--2-------2-----2---2-------2-|
D--0-------0--------0--------0-----------|
A----------------------------------------|
E----------------------------------------|

Part II: (Finger-pick this part?)
e-------0----0-------0----0-------0----0-------0----0----|
B------3-3--3-3-----3-3--3-3-----3-3--3-3-----3-3--3-3---|
G-----0---0----0---0---0----0---0---0----0---0---0----0--|
D-------------------------------------------2-----2----2-|
A--0h3-----3----3-2-----2----2-0-----0----0--------------|
E--------------------------------------------------------|


Part I	x2
Part II
Part I	x2

Part III:  (3/4?s of the way thru I think he just kinda wings it with the finger-picking..its hard to tell 
cause the flute is too loud @ that point.  Play the first part of ?Part III? 4 times then do the next part)

e-------0----0-------0----0-------0----0----|
B------3-3--3-3-----3-3--3-3-----3-3--3-3---|
G-----0---0----0---0---0----0---0---0----0-:|
D-------------------------------------------|
A--0h3-----3----3-2-----2----2-0-----0----0-|
E-------------------------------------------|

e-----0----0------0----0------0----0------|
B----3-3--3-3----3-3--3-3----3-3--3-3-----|
G---0---0----0--0---0----0--0---0----0----|
D--2-----2----2------------2-----2----2---|
A--------------0-----0----0---------------|
E-----------------------------------------|

Part I	x3

Part IV:
e-----0h2p0-----0h2p0-----0h2p0-----0h2p0-----0h2-|
B----3-----3---3-----3---3-----3---3-----3---3----|
G---2-------2-2-------2-2-------2-2-------2-2-----|
D--0---------0---------0---------0---------0------|
A-------------------------------------------------|
E-------------------------------------------------|

The whole intro goes:
Part I:	x2
Part II
Part I:	x2
Part II
Part I:	x2
Part III
Part I:	x3
Part IV(ending)

MAIN PART (2:08): (You can figure out the exact number of times he hits each chord?these are close 
 On the 3rd time, he stays on the last chord longer.)
[ Tab from: http://www.guitartabs.cc/tabs/d/dispatch/walk_with_you_tab_ver_2.html ]
Verse x3:
e--2-2-3--3-3-3-3-3-3----3-3-3-3-3-3-|
B--3-3-3--3-3-3-3-3-3----3-3-3-3-3-3-|
G--2-2-0--0-0-0-0-0-0----0-0-0-0-0-0-|
D--0-0----2-2-2-2-2-2----0-0-0-0-0-0-|
A---------3-3-3-3-3-3----2-2-2-2-2-2-|
E------------------------3-3-3-3-3-3-|

e--2-2-3--3-3---3-3-----3-3-3-3-3-|
B--3-3-3--3-3---3-3-----3-3-3-3-3-|
G--2-2-0--0-0---0-0-----0-0-0-0-0-|
D--0-0----2-2---0-0---0h2-2-2-2-2-|
A---------3-3---2-2---0h3-3-3-3-3-|
E-------------0h3-3---------------|


Pre-Chorus (3:05):
e----3----3-3-3-3--2-2-2-2-|
B----3----3-3-3-3--3-3-3-3-|
G----0----0-0-0-0--2-2-2-2-|
D----0----2-2-2-2--0-0-0-0-|
A----2--0h3-3-3-3----------|
E--0h3---------------------|

Chorus #1 (3:17):
e-------0------0-------------3--2-2--0-0-0--0-0-0-0-0-0-|
B-------0------1--<7>--<5>---3--3-3--0-0-0--1-1-1-1-1-1-|
G-------0------0--<7>--<5>---0--2-2--0-0-0--0-0-0-0-0-0-|
D--0h2--2--0h2-2--<7>--<5>---0--0-0--2-2-2--2-2-2-2-2-2-|
A--0h2--2--0h3-3--<7>--<5>---2-------2-2-2--3-3-3-3-3-3-|
E--0----0------------------0h3-------0-0-0--------------|

Verse x 2
Pre Chorus

Chorus #2 (4:21):
e-----0------0-0--3-3-3-3------0------0--3-3-3-3-3--2-2-2-2-|
B-----0------1-1--3-3-3-3------0------1--3-3-3-3-3--3-3-3-3-|
G-----0------0-0--0-0-0-0------0------0--0-0-0-0-0--2-2-2-2-|
D-0h2-2--0h2-2-2--0-0-0-0--0h2-2--0h2-2--0-0-0-0-0--0-0-0-0-|
A-0h2-2--0h3-3-3--2-2-2-2--0h2-2--0h3-3--2-2-2-2-2----------|
E-----0-----------3-3-3-3------0---------3-3-3-3-3----------|

Chorus #1 (4:37)

Bridge (4:46): (Do the 1st part 3 times)
e--0-0-0----0-------0--5-5---|--3-3-3-3--3-3-3-3---|
B--1-1-1----1-------3--3-3---|--3-3-3-3--3-3-3-3---|
G--0-0-0----0-------0-------:|--0-0-0-0--0-0-0-0---|
D--2-2-2--0h2--2/4--4--------|--2-2-2-2--0-0-0-0---|
A--3-3-3------------5--------|--3-3-3-3--2-2-2-2---|
E----------------------------|-----------3-3-3-3---|

Now play the SECOND part of the verse, followed by the whole verse. Play the last chord of the verse 
than usual (5:09)
Chorus #1 x2 ? On the second time play the reverse order of the harmonics (5?s then 7?s) ~ (5:41)

Outro (6:13): (Do the 1st part 3 times.
e--3--3/5--3--|--3--3--3---|------------3-|
B--1--1/3--1--|--3--3--3---|------------3-|
G--0--0/0--0-:|--0--0--0---|------------0-|
D--2--2/4--2--|--2--2--2---|------------0-|
A--3--3/5--3--|--3--3--3---|--2h3p2p0-2-2-|
E-------------|------------|------------3-|

The order of the whole song is:
Intro
Verse		x3
Pre-Chorus
Chorus #1
Verse		x2
Pre-Chorus
Chorus #2
Chorus #1
Bridge
*SECOND Part of the Verse
Verse
Chorus #1	x2
Outro
Comments