Dispatch - Time Served Chords & Tabs

 

Time Served Chords & Tabs

Dispatch Chords & Tabs

Version: 2 Type: Tab 0 ratings
1 star 2 stars 3 stars 4 stars 5 stars
comments

Time Served Tab

"Time Served"
By: Dispatch
Tabbed by: Mike «VsG»
RageAgainstDubya@yahoo.com


Bassline (for the intro I think the bass plays the same notes as guitar):
E-----------------------------------|--------------------------------
B-----------------------------------|--------------------------------
G-----------------------------------|--------------------------------
D------------------------7p5--4/5---|-----9------9p7-----7p5--4/5----
A-7-7-10--777--10/9--5-5----------7-|--7-7---777-----5-5---------(7)-
E-----------------------------------|--------------------------------

Intro:
e------------------------------------------------------
B------------------------------------------------------
G--0----------0-----2-0-------0----------0-------------
D----2-0-2--0---2-0-----2-------2-0-2-0-----2-0--------
A-----------------------------------------------2-0----
E--------------------------------------------------3-2-
[ Tab from: http://www.guitartabs.cc/tabs/d/dispatch/time_served_tab_ver_2.html ]
e------------------------------------------------------
B------------------------------------------------------
G--0----------0-----2-0-------0------------------------
D----2-0-2--0---2-0-----2-------2-0-2-0-----------0-2--
A---------------------------------------------0-2------
E-----------------------------------------2-3----------

Verse:
e--7-7--5-5--7-7--3--5-|-7-7--5-5--7-7--5-5--7-7--3-3--5-5-
B--8-8--7-7--8-8--5--7-|-8-8--7-7--8-8--7-7--8-8--5-5--7-7-
G--9-9--7-7--9-9--5--7-|-9-9--7-7--9-9--7-7--9-9--5-5--7-7-
D--9-9--7-7--9-9--5--7-|-9-9--7-7--9-9--7-7--9-9--5-5--7-7-
A--7-7--5-5--7-7--3--5-|-7-7--5-5--7-7--5-5--7-7--3-3--5-5-
E---------------------------------------------------------

E-----------------------------------|--------------------------------
B-----------------------------------|--------------------------------
G-----------------------------------|--------------------------------
D------------------------7p5--4/5---|-----9------9p7-----7p5--4/5----
A-7-7-10--777--10/9--5-5----------7-|--7-7---777-----5-5---------(7)-
E-----------------------------------|--------------------------------
Comments