Dispatch - Time Served Chords & Tabs

 

Time Served Chords & Tabs

Dispatch Chords & Tabs

Version: 1 Type: Tab 0 ratings
1 star 2 stars 3 stars 4 stars 5 stars
comments

Time Served Tab

Dispatch
"Time Served"
Tabbed by Rob Stewart (topdawg039@aol.com) email me. 


-----------------------------------------------------------------------------
-Opening riff.

Standard Tuning
                                          |1st ending------|2cnd ending--|
E-----------------------------------------|----------------|-------------|
B-----------------------------------------|----------------|-------------|
G-----------------------------------------|----------------|-------------|
D--5-2-0-2--0-5-2-0-7-5-2-----5-2-0-2-0---|--5-2-0---------|--------0-2--|
A-----------------------------------------|--------2-0-----|----0-2------|
E-----------------------------------------|-----------3-2--|2-3----------|

*This is only how I play it.  The fifth and seventh frets can be played on the G string if u think
thats easier.
--------------------------------------------------------------------
-Verse Chords.

[ Tab from: http://www.guitartabs.cc/tabs/d/dispatch/time_served_tab.html ]
Chord: x) 7     y)   7    z)  5
          8          7        5  
          9          7        5  
          9          7        5
          7          5        3
          7          5        3

-Chord Progression

x,y,x,z,y,x,y,x,z,y                     Sorry if this is confusing. 
------------------------------------------------------------------------   

-Other Verse Part.
* slide to   / pull off
E---------------------------------------------------------------------
B-------------------------------------------------------------------
G------------------------------------------------------------------
D---------------------------7/5--4*5*2------9------9/7-----7/5--4*5*2--
A-7-7-10-7777--10*9-----5-5-------------7-7---7777-----5-5-------------
E-------------------------------------------------------------------   


Thats all the parts of the song.  Repeat a couple times and stuff, a few variations that you should 
be able to figure out.  If you have any questions, email me.   
Comments