Dispatch - Silent Steeples Chords & Tabs

 

Silent Steeples Chords & Tabs

Dispatch Chords & Tabs

Version: 1 Type: Tab 0 ratings
1 star 2 stars 3 stars 4 stars 5 stars
comments

Silent Steeples Tab

   
-------------------------------------------------------------------------------
			     Silent Steeple solo - Dispatch
-------------------------------------------------------------------------------
Tabbed by: Guych
Email:guycharlesvalois@hotmail.com

Tuning: EADGBE 
| /  slide up
| \  slide down
| h  hammer-on
| p  pull-off
| ~  vibrato
| =  Staccato

e|2h3p0-2-3-3\5-5\7--7\9-9-9 10--10/3--10/3--10-10h12-12-10-9h10-5\7--7\9-9~~~~|
B|-----------------------------------------------------------------------------|
-G|----------------------------------------------------------------------------|
D|-----------------------------------------------------------------------------|
A|-----------------------------------------------------------------------------|
E|-----------------------------------------------------------------------------|

e|10=-9=-7=10=-9----10=-9=-7=9-----------------------------------------------|
B|---------------------------------------------------------------------------|
G|-----------------------------------343---343---3434\6\11-------------------|
D|--------------------------------45----545---545----------------------------|
A|---------------------------------------------------------------------------|
E|---------------------------------------------------------------------------|

fast picking part
e|---------------------------------------------------------------------------|
B|---------------------------------------------------------------------------|
G|11-11-11-11-11-11-11-11-11-11-11-11-11-11-11-11-9-9-9-9-9-9-9-9-9-9-9-9-9-9|
D|---------------------------------------------------------------------------|
A|---------------------------------------------------------------------------|
E|---------------------------------------------------------------------------|

e|----------------------------------------------------------------|
B|----------------------------------------------------------------|
G|9-9-7-7-7-7-7-7-7-7-6-6-6-6-6-6-6-6-7-7-7-7-7-7-7-7-7-7-7-7-7-7-|
D|----------------------------------------------------------------|
A|----------------------------------------------------------------|
E|----------------------------------------------------------------|
[ Tab from: http://www.guitartabs.cc/tabs/d/dispatch/silent_steeples_tab.html ]
e|-7\9--9p7--7\9--9p7--7\9--9p7--7\9--9p7-10----12\14-14=12=10=9--9h10p9-12=|
B|--------------------------------------------------------------------------|
G|--------------------------------------------------------------------------|
D|--------------------------------------------------------------------------|
A|--------------------------------------------------------------------------|
E|--------------------------------------------------------------------------|

e|10=9h10p9-------9h10p9-12=10=-9h10p9-------------------------------------|
B|----------12=10=---------------------12=10=-10-8-7--7h8------------------|
G|------------------------------------------------------------9b------7---7|
D|--------------------------------------------------------7-9-----7-9---9--|
A|-------------------------------------------------------------------------|
E|-------------------------------------------------------------------------|

e|---------------------------10-12-14--10-12--12p10--------10-10/9-9-9h10p9|
B|--------10\12-12-10--10-12------------------------12p10------------------|
G|-9\11-9------------------------------------------------------------------|
D|-------------------------------------------------------------------------|
A|-------------------------------------------------------------------------|
E|-------------------------------------------------------------------------|

e|-10\12-10-9-9h10p9-7------------------------------------------------------|
B|----------------------10-8----5\8-8-8-7--8\12-12-12-11--11h12-12h14-14-12-|
G|--------------------------------------------------------------------------|
D|--------------------------------------------------------------------------|
A|--------------------------------------------------------------------------|
E|--------------------------------------------------------------------------|

e|---------------------------------------------------------------------------|
B|11-12-12\14-14-14-14-14-14-14-14-------------------------------------------|
G|---------------------------------------------------------------------------|
D|---------------------------------------------------------------------------|
A|---------------------------------------------------------------------------|
E|---------------------------------------------------------------------------|

===============================================================================
Comments