Dispatch - Prince Of Spades Chords & Tabs

 

Prince Of Spades Chords & Tabs

Dispatch Chords & Tabs

Version: 2 Type: Tab 0 ratings
1 star 2 stars 3 stars 4 stars 5 stars
comments

Prince Of Spades Tab

   
Yes i know i already submitted this beffore, but this version if definatly better. i 
with my guitar teacher and this is what he showed me


**The main progression for this song is Dm Cadd9 G/B... Since there are so many notes 
I'm not even going to bother to label which chord is which, but just look at the chord 
if you need a refresher**

-1--------0-----0------------------------------------------1--0----------------|
-3--3-----3-------3----------3-----3-3---------------------3--3----------------|
-2--2--0--0---0------------0-------0-0-----------------0h2----------0----------|	x1
-0-----0--2---------0------0------------------0h2h3----0-----------------------|
----------3------------0h2-----2h3------0h2h3-------------------3-----2-3-2----|
----------------------------------------------------------------------------3--|

-----1--------0-0--0----------------0-0-0-0------------------------|
-----3--3-----3-3--3------3-------3-3-3-3-3--3-3---3------3--------|
-0h2----------0-0--0------0-0-----0-0-0-0-0--2-2-0-0------0--------|	x1
-0--------0---2-2--2----------------2-2-2-2--0-0-0-2---------------|
------------3-3-3--3--0h2-----2h3---3-3-3-3--------3--0h2-----2h3--|
-------------------------------------------------------------------|

-----1-----------------------------------------1--------------------------------|
-----3---3--------3--------3-----3-----------3-3--------------3-----------------|
-0h2---0--------0---0--------------0--0-0-0--2---0h2--------0-------------------|	x1
-0-------------------------------------------0---------------------------0---0--|
-----------0h3---------0h2---2h3---------------------0h3--3------2-3-2----------|
-----------------------------------------------------------------------3---1----|

-----1-------------------------------------------------------------------------------------------|
-----3---3-------3---------3---------3-3---3---3------3---3-------3-3-------3-------3-3---3------|
-0h2---0-------0---0-0-----0-0-0-----0---0--------0h2---0-------0-----0-----0-0-----0-0-0---0-0--|	x1
-0-------------------------------0-----------0----0-------------0--------------------------------|
-----------0h3---------0h2---------3------------------------0h3---------0h2-----2h3--------------|
-------------------------------------------------------------------------------------------------|

-------------------------------------------------1------------------|
---3----------3---------3-3-----3-3--------------3---------3-3------|
-----0------0---0-0-----0-0-----0-0-0-0-0-0--0h2---0-0-----0-0-0-0--|	x1
-0-------------------------------------------0----------------------|
-------0h3----------0h2-----2h3------------------------0h3----------|
--------------------------------------------------------------------|

 A
-0------------------|
-2------------------|
-2------9-7---------|x1
-2---s7-------------|
-0---------8-7s--x--|
--------------------|

---1-----------0-------------------1--------------3----------------------------|
-3-3-3-------3---3-----------------3-3------------------3-3-----3--------------|
-2---2-------------------------0h2-----2--------0-------0-0-----0--------------|x1
-0-----------------------------0----------------------------------------0h2h3--|
-------0h3----------2-3-2----------------0h3--3-----0h2-----2h3---0h2h3--------|
--------------------------3-1--------------------------------------------------|

-----1-------------0-0--------------------------------------------------------------------|
-----3---3---------3-3-----3---------3-3-------------3---3--------------3-----------------|
-0h2---0---------0-0-0-----0-0-0-----0-0--0---0---2--2-0--------0-0-------0--------0-0-0--|x1
-0------------------------------------------0-----0---------------------------------------|
-----------0h3-3-------0h2-------2h3-----------------------0h3------0h2-----2h3--3--------|
------------------------------------------------------------------------------------------|
[ Tab from: http://www.guitartabs.cc/tabs/d/dispatch/prince_of_spades_tab_ver_2.html ]
---1--------------------------------0------------1--------------------------------0-0-0-0-0-0--|
---3---3----------3---3-------3------------------3-3-3-----3---3----------3-3-----3-3-3-3-3-3--|
-2---0----------0---0-------0---------0-0-0h2--2-------------0---0-0------0-0-----0-0-0-0-0-0--|x1
-0------------------------------0----------------------0--------------0-------0-----2-2-2-2-2--|
---------0h3--3---------0h2-------3----------------------3--------------2-------3---3-3-3-3-3--|
-----------------------------------------------------------------------------------------------|

			     A
-----------------------------0---------------------|
---3-------------3-0-0-------2---------------------|
---2-0-0-------0---0-0-------2------9-7------------|	x1
-0---------------------0h2---2---s7----------------|
---------2h3-3---------0-----0---------8-7s8s7--x--|
---------------------------------------------------|

---1----------0------------------1------------------------------------------1---------0-----------------|
-3-3-3------3---3----------------3-3------------3-----3-3-----3-------------3---3-----3-----------------|
-2---2-----------------------0h2-----2----------------0-0-----0---------0h2---2-------0-0---0-----------|x1
-0---------------------------0----------------0-------------------------0-------------------------------|
-------0h3--------2-3-2----------------0h3--3-----0h2-----2h3---2h3-0-------------0h3-----3----2-3-2----|
------------------------3-1--------------------------------------------------------------------------3--|

-----1-----------0--------------------0-0-0--|
-----3-3-----3---3-3------3-3-----3-3-3-3-3--|
-0h2---2-----0---0--------0-0-----0-0-0-0-0--|	x1
-0---------------2--------------------2-2-2--|
---------0h3---3-3----0h2-----2h3-----3-3-3--|
---------------------------------------------|

       Dm      Cadd9   G/B     Cadd9
-----1-1-------0-------0-------0----|
-----3-3-------2-------3-------3----|
-0h2---2-------0-------0-------0----|	x7
-0-----0-------2-------0-------2----|
----------0h3--3---0h2-2---2h3-3----|
------------------------------------|

LEAD OUTRO:
-------13-------13------12-------12-------12-------10-------10-------12-------12-------12--|
-------------------------------------------------------------------------------------------|
-14-14----14-14----12-12---12-12----12-12----10-10----10-10----12-12----12-12----12-12-----|
-------------------------------------------------------------------------------------------|
-------------------------------------------------------------------------------------------|
-------------------------------------------------------------------------------------------|

       Dm      Cadd9   G/B     Cadd9
-----1-1-------0-------0-------0--------------|
-----3-3-------2-------3-------3--------------|
-0h2---2-------0-------0-------0--------------|	x1
-0-----0-------2-------0-------2-------0h2h3--|
----------0h3--3---0h2-2---2h3-3-0h2h3--------|
----------------------------------------------|

       Dm      Cadd9   G/B     Cadd9
-----1-1-------0-------0-------0----|
-----3-3-------2-------3-------3----|
-0h2---2-------0-------0-------0----|	x1
-0-----0-------2-------0-------2----|
----------0h3--3---0h2-2---2h3-3----|
------------------------------------|

       Dm      Cadd9   G/B     Cadd9
-----1-1-------0-------0-------0--------------|
-----3-3-------2-------3-------3--------------|
-0h2---2-------0-------0-------0--------------|	x1
-0-----0-------2-------0-------2-------0h2h3--|
----------0h3--3---0h2-2---2h3-3-0h2h3--------|
----------------------------------------------|

       Dm      Cadd9   G/B     Cadd9
-----1-1-------0-------0-------0----|
-----3-3-------2-------3-------3----|
-0h2---2-------0-------0-------0----|	x2
-0-----0-------2-------0-------2----|
----------0h3--3---0h2-2---2h3-3----|
------------------------------------|
Comments