Dispatch - Out Loud Chords & Tabs

 

Out Loud Chords & Tabs

Dispatch Chords & Tabs

Version: 1 Type: Tab 0 ratings
1 star 2 stars 3 stars 4 stars 5 stars
comments

Out Loud Tab

This is my second tab and i think it's pretty close. This song is easy to play but it is 
a great song.

Intro
G-------------------------------------------
D-------------------------------------------
A-7-x-4-4-4-x-4/7---------------------------3 times
E-5-x-2-2-2-x-2/5---------------------------

G-------------------------------------------
D----7--9-----------------------------------
A-7--5--7--x--------------------------------
E-5--------x--------------------------------

Verse
G-------------------------------------------
D-------------------------------------------
A-7-x-4-4-4-x-4/7---------------------------6 times
E-5-x-2-2-2-x-2/5---------------------------

Prechorus
G-------------------------------------------
D----7--9-----------------------------------
A-7--5--7-----------------------------------
E-5-----------------------------------------

Chorus
G-------------------------------------------
D-7-x-9-x-----------------------------------
A-5-x-7-x-7-7-x-4-4-4-x---------------------
E---------5-5-x-2-2-2-x---------------------

G-------------------------------------------
D-7-x-9-x-----------------------------------
A-5-x-7-x-4-4-4-4-4-4-x---------------------
E---------2-2-0-2-0-2-x---------------------

G-------------------------------------------
D-7-x-9-x-----------------------------------
A-5-x-7-x-7-7-x-4-4-4-x---------------------
E---------5-5-x-2-2-2-x---------------------

G-------------------------------------------
D-7-x-9-------------------------------------
A-5-x-7-------------------------------------
E-------------------------------------------

Bridge
G-------------------------------------------
D-------------------------------------------
A-7-x-4-4-4-x-4/7---------------------------3 times
E-5-x-2-2-2-x-2/5---------------------------

G-------------------------------------------
D----7--9-----------------------------------
A-7--5--7-----------------------------------
E-5-----------------------------------------
[ Tab from: http://www.guitartabs.cc/tabs/d/dispatch/out_loud_tab.html ]
Bridge Type 2
G-------------------------------------------
D-7---4-4-4---4/7---------------------------
A-7-x-4-4-4-x-4/7---------------------------3 times
E-5-x-2-2-2-x-2/5---------------------------

G----7--9-----------------------------------
D-7--7--9-----------------------------------
A-7--5--7-----------------------------------
E-5-----------------------------------------

Verse Type 2
G-------------------------------------------
D-7-x-4-4-4-x-4/7---------------------------
A-7-x-4-4-4-x-4/7---------------------------7 times
E-5-x-2-2-2-x-2/5---------------------------

Prechorus Type 2
G----7--9-----------------------------------
D-7--7--9-----------------------------------
A-7--5--7-----------------------------------
E-5-----------------------------------------

Chorus Type 2
G-7-x-9-x-----------------------------------
D-7-x-9-x-7-7-x-4-4-4-x---------------------
A-5-x-7-x-7-7-x-4-4-4-x---------------------
E---------5-5-x-2-2-2-x---------------------

G-7-x-9-x-----------------------------------
D-7-x-9-x-4-4-4-4-4-4-x---------------------
A-5-x-7-x-4-4-4-4-4-4-x---------------------
E---------2-2-0-2-0-2-x---------------------

G-7-x-9-x-----------------------------------
D-7-x-9-x-7-7-x-4-4-4-x---------------------
A-5-x-7-x-7-7-x-4-4-4-x---------------------
E---------5-5-x-2-2-2-x---------------------

G-7-x-9-------------------------------------
D-7-x-9-------------------------------------
A-5-x-7-------------------------------------
E-------------------------------------------

Outro
G-------------------------------------------
D-7-x-4-4-4-x-4/7---------------------------
A-7-x-4-4-4-x-4/7---------------------------6 times
E-5-x-2-2-2-x-2/5---------------------------

G-7-x-9-x-----------------------------------
D-7-x-9-x-7---------------------------------
A-5-x-7-x-7---------------------------------
E---------5---------------------------------

Intro
Verse
Prechorus 
Chorus
Bridge
Verse
Prechorus
Chorus
Bridge Type 2
Verse Type 2
Prechorus Type 2
Chorus Type 2
Outro
Comments