Dispatch - Other Side Chords & Tabs

 

Other Side Chords & Tabs

Dispatch Chords & Tabs

Version: 1 Type: Tab 0 ratings
1 star 2 stars 3 stars 4 stars 5 stars
comments

Other Side Tab

   
Dispatch/One Fell Swoop
Silent Steeples (Remastered)
Other Side
Tabbed by Owen Sakovics
www.tabsinonefellswoop.com

 G
-3---3--3---3--3-3--|
-3---3--3---3--3-3--|
-0h2-2--0h2-2--2-2--|	x4
-0---0--0---0--0-0--|
-0---0--2---0--0-0--|
-3---3--3---3--3-3--|

 G	G	Em7	Em7
-3------3-------3-------3--|
-3------3-------3-------3--|
-0------0-------0-------0--|	x1
-0------0-------2-------2--|
-2------2-------2-------2--|
-3------3-------0-------0--|

 C		Am	Am	C		Am	Am	Am	Am
-0------0-------0-------0-------0-------0-------0-------0-------0-------0-|
-1------1-------1-------1-------1-------1-------1-------1-------1-------1-|
-0------0-------2-------2-------0-------0-------2-------2-------2-------2-|x1
-2------0-------2-------2-------2-------0-------2-------2-------2-------2-|
-3------2-------0-------0-------3-------2-------0-------0-------0-------0-|
--------------------------------------------------------------------------|

 D	D6	Cadd9	D	D6	Cadd9	Cadd9	Cadd9
-2------2-------3-------2-------2-------0-------0-------0----|
-3------3-------3-------3-------3-------3-------3-------3----|
-2------0-------0-------2-------0-------0-------0-------0----|	x1
-0------0-------2-------0-------0-------2-------2-------2----|
--------2-------3---------------2-------3-------3-------3----|
-------------------------------------------------------------|

 G	G	G	G
-3------3-------3-------3---3------3-------3-------3--|
-3------3-------3-------3---3------3-------3-------3--|
-0------0-------0-------0---0------0-------0-------0--|	x1
-0------0-------0-------0---0------0-------2-------2--|
-2------2-------2-------2---2------2-------2-------2--|
-3------3-------3-------3---3------3-------0-------0--|

 C		Am	Am	C		Am	Am	Am	Am
-0------0-------0-------0-------0-------0-------0-------0-------0-------0-|
-1------1-------1-------1-------1-------1-------1-------1-------1-------1-|
-0------0-------2-------2-------0-------0-------2-------2-------2-------2-|x1
-2------0-------2-------2-------2-------0-------2-------2-------2-------2-|
-3------2-------0-------0-------3-------2-------0-------0-------0-------0-|
--------------------------------------------------------------------------|

 D	D6	Cadd9	D	D6	Cadd9	Cadd9	Cadd9
-2------2-------0-------2-------2-------0-------0-------0----|
-3------3-------3-------3-------3-------3-------3-------3----|
-2------0-------0-------2-------0-------0-------0-------0----|	x1
-0------0-------2-------0-------0-------2-------2-------2----|
--------2-------3---------------2-------3-------3-------3----|
-------------------------------------------------------------|

 G
-3---3--3---3--3-3--|
-3---3--3---3--3-3--|
-0h2-2--0h2-2--2-2--|	x3
-0---0--0---0--0-0--|
-0---0--2---0--0-0--|
-3---3--3---3--3-3--|

(LEAD I CHORDS)
 C	Em	C	Em	 C	Em
-0------0-------0-------0--------0------0--|
-1------0-------1-------0--------1------0--|
-0------0-------0-------0--------0------0--|	x1
-2------2-------2-------2--------2------2--|
-3------2-------3-------2--------3------2--|
--------0---------------0---------------0--|
[ Tab from: http://www.guitartabs.cc/tabs/d/dispatch/other_side_tab.html ]
LEAD I:
-------------------|
-3-1---7-5--3-1-0--|
-4-2---7-5--4-2-0--|
-------------------|
-------------------|
-------------------|

 C	Em	C	Em	 C	Em
-0------0-------0-------0--------0------0--|
-1------0-------1-------0--------1------0--|
-0------0-------0-------0--------0------0--|	x1
-2------2-------2-------2--------2------2--|
-3------2-------3-------2--------3------2--|
--------0---------------0---------------0--|

 G
-3---3--3---3--3-3--|
-3---3--3---3--3-3--|
-0h2-2--0h2-2--2-2--|	x4
-0---0--0---0--0-0--|
-0---0--2---0--0-0--|
-3---3--3---3--3-3--|

 G	G	Em7	Em7
-3------3-------3-------3--|
-3------3-------3-------3--|
-0------0-------0-------0--|	x1
-0------0-------2-------2--|
-2------2-------2-------2--|
-3------3-------0-------0--|

 C		Am	Am	C		Am	Am	Am	Am
-0------0-------0-------0-------0-------0-------0-------0-------0-------0-|
-1------1-------1-------1-------1-------1-------1-------1-------1-------1-|
-0------0-------2-------2-------0-------0-------2-------2-------2-------2-|x1
-2------0-------2-------2-------2-------0-------2-------2-------2-------2-|
-3------2-------0-------0-------3-------2-------0-------0-------0-------0-|
--------------------------------------------------------------------------|

 D	D6	Cadd9	D	D6	Cadd9
-2------2-------3-------2-------2-------3----|
-3------3-------3-------3-------3-------3----|
-2------0-------0-------2-------0-------0----|	x1
-0------0-------2-------0-------0-------2----|
--------2-------3---------------2-------3----|
---------------------------------------------|

 D	 D6	 Cadd9	 Cadd9	 Cadd9
-2-------2-------3-------3-------3----|
-3-------3-------3-------3-------3----|
-2-------0-------0-------0-------0----|	x1
-0-------0-------2-------2-------2----|
---------2-------3-------3-------3----|
--------------------------------------|

 G
-3---3--3---3--3-3--|
-3---3--3---3--3-3--|
-0h2-2--0h2-2--2-2--|	x2
-0---0--0---0--0-0--|
-0---0--2---0--0-0--|
-3---3--3---3--3-3--|

(LEAD II CHORDS)
 D	D	G	D	D  	  G	  G
-2------2-------3-------2-------2---------3-------3--|
-3------3-------3-------3-------3---------3-------3--|
-2------2-------0-------2-------2---------0-------0--|	x1
-0------0-------0-------0-------0---------0-------0--|
----------------2-------------------------2-------2--|
----------------3-------------------------3-------3--|

LEAD II:
-------------------------------------------------------------|
---------7-8-7-----------7-8-7---7-8-8s10---12-10-8-7-7-8-7--|
-----7-9-------------7-9-------------------------------------|
-7-9-------------7-9-----------------------------------------|
-------------------------------------------------------------|
-------------------------------------------------------------|

-------------------------------------------------------------------|
---------7-8-7-----------7-8-7---7-8-8s10-8-7-8-7---7-----7--3--0--|
-----7-9-------------7-9--------------------------9-7-----7--4--0--|
-7-9-------------7-9-----------------------------------------------|
-------------------------------------------------------------------|
-------------------------------------------------------------------|

(OUTRO)
 G	G	G	G
-3------3-------3-------3--|
-3------3-------3-------3--|
-0------0-------0-------0--|
-0------0-------0-------0--|
-2------2-------2-------2--|
-3------3-------3-------3--|
Comments