Dispatch - Mayday Chords & Tabs

 

Mayday Chords & Tabs

Dispatch Chords & Tabs

Version: 1 Type: Tab 0 ratings
1 star 2 stars 3 stars 4 stars 5 stars
comments

Mayday Tab

   
Dispatch
Silent Steeples
Mayday


 Bb 	C 	Dm
-1------0-------5-|
-3------1-------6-|
-3------0-------7-|	x11
-3------2-------7-|
-1------3-------5-|
------------------|

Riff:
---------0h1----|
-----3-------3--|
-0h2---2--------|
----------------|
----------------|
----------------|

 F	C 	Dm 	Bb	C
-1------0-------1-------1---------|
-1------1-------3-------3---------|
-2------0-------2-------3---------|	x2
-3------2-------0-------3---------|
-3------3---------------1---------|
-1--------------------------------|


 Bb 	C 	Dm
-1------0-------5-|
-3------1-------6-|
-3------0-------7-|	x13
-3------2-------7-|
-1------3-------5-|
------------------|

Riff:
---------0h1----|
-----3-------3--|
-0h2---2--------|
----------------|
----------------|
----------------|

 F	C 	Dm 	Bb	C
-1------0-------1-------1-------3--|
-1------1-------3-------3-------5--|
-2------0-------2-------3-------5--|	x2
-3------2-------0-------3-------5--|
-3------3---------------1-------3--|
-1---------------------------------|


SOLO CHORDS
 Bb 	C 	Dm
-1------0-------5-|
-3------1-------6-|
-3------0-------7-|
-3------2-------7-|
-1------3-------5-|
------------------|


SOLO
-----------------------------------------------------|
-13p10-----------------------------------------------|
-------12p10--12b14r12--12---------------------------|
----------------------------12--10-10----------------|
-----------------------------------------------------|
-----------------------------------------------------|


-----------------------------------------------------|
-------------------10-------13-13s15--13h15-15b17r15-|
-------10----10h12----12s14--------------------------|
-10h12----12-----------------------------------------|
-----------------------------------------------------|
-----------------------------------------------------|

[ Tab from: http://www.guitartabs.cc/tabs/d/dispatch/mayday_tab.html ]
---------------------------------11------------------|
-15-13-15---15-13-15---15-13-15-----15s0-------------|
-----------------------------------------------------|
-----------------------------------------------------|
-----------------------------------------------------|
-----------------------------------------------------|


-----------------------------------------------------|
-----------------------------------------------------|
-----------------------------------------------------|
---------------3-2-3-5-3-2-0-------------------------|
-------3---3-5---------------------------------------|
-3h4h5---5-------------------------------------------|


--------------------------------------------------------------------|
--------------------------------------------------------------------|
--------------------------------------------------------------------|
------------------------------------7-----7-10-7-10-10s12--12b13r12-|
-------3---3-5-5s7-5-7-7s8-7-8-8s10----10---------------------------|
-3h4h5---5----------------------------------------------------------|


-10-----12-----13-----17-------10-----12-----13-----17---------------|
-13b15--15b17--16b18--20b22----13b15--15b17--16b18--20b22-r20--20-18-|
---------------------------------------------------------------------|
---------------------------------------------------------------------|
---------------------------------------------------------------------|
---------------------------------------------------------------------|


------------13--------------13----------------------------|
-15-13-15-----15---15-13-15----15-15b17r15--15-13-15------|
-----------------------------------------------------14---|
----------------------------------------------------------|
----------------------------------------------------------|
----------------------------------------------------------|


-------------------------------------------------------------------|
-15-13-15---15-13-15---15-13-15-----15-13-15---15-13-15---15-13-15-|
-------------------------------------------------------------------|
-------------------------------------------------------------------|
-------------------------------------------------------------------|
-------------------------------------------------------------------|
Comments