Dispatch - Flying Horses Chords & Tabs

 

Flying Horses Chords & Tabs

Dispatch Chords & Tabs

Version: 2 Type: Tab 0 ratings
1 star 2 stars 3 stars 4 stars 5 stars
comments

Flying Horses Tab

   
Flying Horses

Intro
E-----3--3---5--3---7--7--7---10--7--3--3--3--7--10--5--5--5-7-5-------------
B-----3--3---7--3---8--8--8---12--8--5--5--5--8--12--7--7--7-8-7-------------
G------------------------------------------------------------------------------
D------------------------------------------------------------------------------
A------------------------------------------------------------------------------
E------------------------------------------------------------------------------

Then repeat faster part/Chorus:
       G       D      EM	     C       EM	     D
E------3-------2-------0-------------0-------0-------2-------------------------
B------3-------3-------0-------------1-------0-------3-------------------------
G------0-------2-------0-------------0-------0-------2-------------------------
D------0-------0-------2-------------2-------2-------0-------------------------
A------2---------------2-------------3-------2---------------------------------
E------3---------------0-------------0-------0---------------------------------
[ Tab from: http://www.guitartabs.cc/tabs/d/dispatch/flying_horses_tab_ver_2.html ]
Verse:
       G	    D            EM	 
E------3------------2------------0---------------------------------------------
B------3------------3------------0---------------------------------------------
G------0------------2------------0---------------------------------------------
D------0------------0------------2---------------------------------------------
A------2-------------------------2---------------------------------------------
E------3-------------------------0---------------------------------------------

Flying horses part:
       G	D        EM               G        D        EM       C
E------3--------2--------0----------------3--------2--------0--------0---------
B------3--------3--------0----------------3--------3--------0--------1---------
G------0--------2--------0----------------0--------2--------0--------0---------
D------0--------0--------2----------------0--------0--------2--------2---------
A------2-----------------2----------------2-----------------2--------3---------
E------3-----------------0----------------3-----------------0--------0---------
Comments