Dispatch - Blood Chords & Tabs

 

Blood Chords & Tabs

Dispatch Chords & Tabs

Version: 1 Type: Tab 0 ratings
1 star 2 stars 3 stars 4 stars 5 stars
comments

Blood Tab

   
from who are we living for?


**PLAYED WITH SLIDE ON ACOUSTIC**
-----------------------|
-----------------------|
-----------------------|
-------------0--s4-0---|
-s7-----0-s2-----------|
-----------------------|


-------------------|
-------------------|
-------------------|	(Slight variations)
-------------------|
-------5h7--7--5---|
-5h6h7-------------|

(Horn Part)
 Em	D	A	G	F#
-7------5-------5-------3-------2----------------|
-8------7-------5-------3-------2----------------|
-9------7-------6-------4-------3-----------7p6--|
-9------7-------7-------5-------4----------------|
-7------5-------7-------5-------4----------------|
----------------5-------3-------2---2s7--7-------|
[ Tab from: http://www.guitartabs.cc/tabs/d/dispatch/blood_tab.html ]
-------------------|
-------------------|
-------------------|	(Slight variations)
-------------------|
-------5h7--7--5---|
-5h6h7-------------|


**PLAYED WITH SLIDE ON ACOUSTIC OVER MAIN PART**

---------------------------7s12--|
---------------------------------|
---------------------------------|	x2
-s9---5---s7---s5----------------|
-------------------s7------------|
---------------------------------|

-----------------------7s12-12----12----12-------|
-------------------------------12----12----12----|
-------------------------------------------------|
-s9---5---s7---s5--------------------------------|
-------------------s7----------------------------|
-------------------------------------------------|

---------------------------7s12--|
---------------------------------|
---------------------------------|	(until end)
-s9---5---s7---s5----------------|
-------------------s7------------|
---------------------------------|

pretty easy peace out
Comments