Dispatch - Bats In The Belfry Acoustic Chords & Tabs

 

Bats In The Belfry Acoustic Chords & Tabs

Dispatch Chords & Tabs

Version: 1 Type: Tab 0 ratings
1 star 2 stars 3 stars 4 stars 5 stars
comments

Bats In The Belfry Acoustic Tab

   
Dispatch/One Fell Swoop
Bang Bang (Remastered)
Bats in the Belfry (Acoustic)
Tabbed by Owen Sakovics
www.tabsinonefellswoop.com

 Abm	Db	Abm	Db	Abm	Db	Ebm
-4------4-------4-------4-------4-------4-------6--|
-4------6-------4-------6-------4-------6-------7--|
-4------6-------4-------6-------4-------6-------8--|	x4
-6------6-------6-------6-------6-------6-------8--|
-6------4-------6-------4-------6-------4-------6--|
-4--------------4---------------4------------------|

 Ebm	Gb	Ebm	Gb	Ebm	Gb	Db
-6------2-------6-------2-------6-------2-------4--|
-7------2-------7-------2-------7-------2-------6--|
-8------3-------8-------3-------8-------3-------6--|	x1
-8------4-------8-------4-------8-------4-------6--|
-6------4-------6-------4-------6-------4-------4--|
--------2---------------2---------------2----------|

 Ebm	Gb	Ebm	Gb	Ebm	Gb	Ebm	Gb
-6------2-------6-------2-------6-------2-------6-------2--|
-7------2-------7-------2-------7-------2-------7-------2--|
-8------3-------8-------3-------8-------3-------8-------3--|	x1
-8------4-------8-------4-------8-------4-------8-------4--|
-6------4-------6-------4-------6-------4-------6-------4--|
--------2---------------2---------------2---------------2--|

 Abm	Db	Gb	B	Abm	Db	Gb	B
-4------4-------2-------2-------4-------4-------2-------2--|
-4------6-------2-------4-------4-------6-------2-------4--|
-4------6-------3-------4-------4-------6-------3-------4--|	x1
-6------6-------4-------4-------6-------6-------4-------4--|
-6------4-------4-------2-------6-------4-------4-------2--|
-4--------------2---------------4---------------2----------|

 Abm	Db	Gb	B	Abm	Db	Gb
-4------4-------2-------2-------4-------4-------2--|
-4------6-------2-------4-------4-------6-------2--|
-4------6-------3-------4-------4-------6-------3--|	x1
-6------6-------4-------4-------6-------6-------4--|
-6------4-------4-------2-------6-------4-------4--|
-4--------------2---------------4---------------2--|

 Abm	Db	Abm	Db	Abm	Db	Ebm
-4------4-------4-------4-------4-------4-------6--|
-4------6-------4-------6-------4-------6-------7--|
-4------6-------4-------6-------4-------6-------8--|	x3
-6------6-------6-------6-------6-------6-------8--|
-6------4-------6-------4-------6-------4-------6--|
-4--------------4---------------4------------------|

 Ebm	Gb	Ebm	Gb	Ebm	Gb	Db
-6------2-------6-------2-------6-------2-------4--|
-7------2-------7-------2-------7-------2-------6--|
-8------3-------8-------3-------8-------3-------6--|	x1
-8------4-------8-------4-------8-------4-------6--|
-6------4-------6-------4-------6-------4-------4--|
--------2---------------2---------------2----------|

 Ebm	Gb	Ebm	Gb	Ebm	Gb	Ebm	Gb
-6------2-------6-------2-------6-------2-------6-------2--|
-7------2-------7-------2-------7-------2-------7-------2--|
-8------3-------8-------3-------8-------3-------8-------3--|	x1
-8------4-------8-------4-------8-------4-------8-------4--|
-6------4-------6-------4-------6-------4-------6-------4--|
--------2---------------2---------------2---------------2--|
[ Tab from: http://www.guitartabs.cc/tabs/d/dispatch/bats_in_the_belfry_acoustic_tab.html ]
 Abm	Db	Gb	B	Abm	Db	Gb	B
-4------4-------2-------2-------4-------4-------2-------2--|
-4------6-------2-------4-------4-------6-------2-------4--|
-4------6-------3-------4-------4-------6-------3-------4--|	x1
-6------6-------4-------4-------6-------6-------4-------4--|
-6------4-------4-------2-------6-------4-------4-------2--|
-4--------------2---------------4---------------2----------|

 Abm	Db	Gb	B	Abm	Db	Gb
-4------4-------2-------2-------4-------4-------2--|
-4------6-------2-------4-------4-------6-------2--|
-4------6-------3-------4-------4-------6-------3--|	x1
-6------6-------4-------4-------6-------6-------4--|
-6------4-------4-------2-------6-------4-------4--|
-4--------------2---------------4---------------2--|

 Abm	Db	Abm	Db	Abm	Db	Ebm
-4------4-------4-------4-------4-------4-------6--|
-4------6-------4-------6-------4-------6-------7--|
-4------6-------4-------6-------4-------6-------8--|	x2
-6------6-------6-------6-------6-------6-------8--|
-6------4-------6-------4-------6-------4-------6--|
-4--------------4---------------4------------------|

 Ebm	Ebm	Ebm	Ebm
-6------6-6-----6-------6-6-6-6-6--|
-7------7-7-----7-------7-7-7-7-7--|
-8------8-8-----8-------8-8-8-8-8--|	x1
-8------8-8-----8-------8-8-8-8-8--|
-6------6-6-----6-------6-6-6-6-6--|
-----------------------------------|

 Ebm	Gb	Ebm	Gb	Ebm	Gb	Db
-6------2-------6-------2-------6-------2-------4--|
-7------2-------7-------2-------7-------2-------6--|
-8------3-------8-------3-------8-------3-------6--|	x1
-8------4-------8-------4-------8-------4-------6--|
-6------4-------6-------4-------6-------4-------4--|
--------2---------------2---------------2----------|

 Ebm	Gb	Ebm	Gb	Ebm	Gb	Ebm	Gb
-6------9-------6-------9-------6-------9-------6-------9---|
-7------11------7-------11------7-------11------7-------11--|
-8------11------8-------11------8-------11------8-------11--|	x2
-8------11------8-------11------8-------11------8-------11--|
-6------9-------6-------9-------6-------9-------6-------9---|
------------------------------------------------------------|

 Abm	Db	Gb	B	Abm	Db	Gb	B
-4------4-------2-------2-------4-------4-------2-------2--|
-4------6-------2-------4-------4-------6-------2-------4--|
-4------6-------3-------4-------4-------6-------3-------4--|	x3
-6------6-------4-------4-------6-------6-------4-------4--|
-6------4-------4-------2-------6-------4-------4-------2--|
-4--------------2---------------4---------------2----------|

 Abm	Db	Gb
-4------4-------2--|
-4------6-------2--|
-4------6-------3--|	x1
-6------6-------4--|
-6------4-------4--|
-4--------------2--|

 Abm	Db	Abm	Db	Abm	Db	Ebm
-4------4-------4-------4-------4-------4-------6--|
-4------6-------4-------6-------4-------6-------7--|
-4------6-------4-------6-------4-------6-------8--|	x2
-6------6-------6-------6-------6-------6-------8--|
-6------4-------6-------4-------6-------4-------6--|
-4--------------4---------------4------------------|

 Ebm	Gb	Ebm	Gb	Ebm	Gb	Db	B
-6------2-------6-------2-------6-------2-------4--|
-7------2-------7-------2-------7-------2-------6--|
-8------3-------8-------3-------8-------3-------6--|	x1
-8------4-------8-------4-------8-------4-------6--|
-6------4-------6-------4-------6-------4-------4--|
--------2---------------2---------------2----------|

 Ebm	Gb	Ebm	Gb	Ebm	Gb	Ebm
-6------2-------6-------2-------6-------2-------6--|
-7------2-------7-------2-------7-------2-------7--|
-8------3-------8-------3-------8-------3-------8--|	x1
-8------4-------8-------4-------8-------4-------8--|
-6------4-------6-------4-------6-------4-------6--|
--------2---------------2---------------2----------|
Comments