Dispatch - Bang Bang Chords & Tabs

 

Bang Bang Chords & Tabs

Dispatch Chords & Tabs

Version: 7 Type: Tab 0 ratings
1 star 2 stars 3 stars 4 stars 5 stars
comments

Bang Bang Tab

   
This is standard tuning and only the intro, I haven't figured out the chords yet,
I don't use any effects I just play it straight through the amp and it sounds fine.

/ = slide up
h = hammer

E----------------------------------|
B----------------------------------|
G-9--9/11--9--------9--------------|
D-9--9/11--9--9/11--9--------------|
A-7-----------9/11----------7--7h9-|
E----------------------7h9---------|
[ Tab from: http://www.guitartabs.cc/tabs/d/dispatch/bang_bang_tab_ver_7.html ]
That's the main part of the song, I haven't got the solo or chords :( but if I find a
good tab of it or figure it out I'll post it, there's this one variation in the song to
what I have written above, instead of on the second slide where they play the 99 on D
and G, its played on A and D:

E----------------------------------|
B----------------------------------|
G-9--9/11--9-----------------------|
D-9--9/11--9--9/11--9--------------|
A-7-----------9/11--9-------7--7h9-|
E----------------------7h9---------|

Nice n simple, good old Dispatch, enjoy.
Comments