Dispatch - Bang Bang Chords & Tabs

 

Bang Bang Chords & Tabs

Dispatch Chords & Tabs

Version: 6 Type: Tab 0 ratings
1 star 2 stars 3 stars 4 stars 5 stars
comments

Bang Bang Tab

   
-------------------------------------------------------------------------------
			Dispatch- Bang Bang
-------------------------------------------------------------------------------
Tabbed by: me
Email: my own

Tuning: standard
[ Tab from: http://www.guitartabs.cc/tabs/d/dispatch/bang_bang_tab_ver_6.html ]
Intro/Verse: (w/ light tremolo effect, sounds perfect)
e|--------------------------------------------------------------------|
B|-9-9------9---------------------------------------------------------|
G|-9-9-9----9---------------------------------------------------------|
D|-9-9-9h11---9----9-9~-----------------------------------------------|
A|-7-7--------9h11-9-9~-------7-7h9-----------------------------------|
E|-------------------------7h9----------------------------------------|

You can find many good tabs of the solo so I'll leave that up to you but I haven't
seen many good tabs of the meat of the song but this is 110% correct I'm certain.
And if you find a nice tremolo effect to splash on there it sounds PERFECT. 

| /  slide up
| \  slide down
| h  hammer-on
| p  pull-off
| ~  vibrato
| +  harmonic
| x  Mute note
===============================================================================
Comments