Dispatch - Bang Bang Chords & Tabs

 

Bang Bang Chords & Tabs

Dispatch Chords & Tabs

Version: 4 Type: Tab 0 ratings
1 star 2 stars 3 stars 4 stars 5 stars
comments

Bang Bang Tab

   
Dispatch
Bang Bang C.D.





"Here We Go"
Tuning: normal

Verse: 

Bm-->A-->B/F-->E 

Bridge 

D(barred)-->B/F-->E-->Bm 

D(barred) 
e---------- 
b---------- 
g--7------- 
d--7------- 
a--5------- 
E---------- 

B/F chord 
e--------- 
b--2------ 
g--3------ 
d--4------ 
a--4------ 
E--------- 

_____________________________________________________________________________

"Bats in the Belfry"
Tuning: normal

CHORDS (E to E)


Ab5: 4-6-6-4-4-4 Db5: x-4-6-6-x-x

Bb5: 6-8-8-6-6-6 Gb5: 2-4-4-x-x-x

Ebm: x-6-8-8-7-6 B5: x-2-4-4-x-x

Gb: x-9-11-11-10-9

INTRO AND VERSE

Ab5-Bb5-Ab5-Bb5-Ab5-Bb5-Ebm

(Hit the top three notes)

PRE-CHORUS

Ebm Gb5 }
Oh mama we now so hungrey} X3 then Ab5

Ebm-Db5-Ebm-Gb } X4
CHORUS

Ab5-Db5-Gb5-B5 } X3

4th time end on Gb5 then back to verse

________________________________________________________________________

"The General"
Tuning: normal

Intro: repeat 2 X 

e------------------------------1----------------- 
B------------------------3--3--1----------------- 
G------------------------3--3--2----------------- 
D------------------------3--3--3--3--3h5p3------- 
A------------1--1-----1--1--1--3------------3h5p1 
E--1--1/3p1--------3-----------1----------------- 

e-------3--3------------------------------6--x 
B-------4--4--3-------------------8-----------6--x 
G-------5--5--4-------------------8-----------7--x 
D-------5--5--5-------------------8-----------8--x 
A--1/3--3--3--5----------1----/6--6-----------8--x 
E-------------3--1--1/3-----3--------6--6--6--6--x 

e--1--1----1----1--1------ 
B--1--1----1----1--1------ 
G--2--2----2----2--2------ 
D--3--3----3----3--3------ 
A--3--3----3----3--3------ 
E--1--1----1----1--1------ 

Verse: There was a decorated general 
e----------------------------------- 
B----------------------------------- 
G--------------3-------------------- 
D--------------3----------------3--- 
A--------1----------------------3--- 
E-----------------------1----------- 

e------------------------------------ 
B----------------------------------- 
G-------------5--------------------- 
D-------------5-------------5------- 
A--------3------------------5------ 
E----------------------3---------- 

e-------------------------------- 
B-------------8------------------ 
G-------------8------------------ 
D-------------8---------8-------- 
A-------/6--------------8-------- 
E------------------6------------- 

e--------------------- 
B--------------------- 
G--2--2----2----2--2-- 
D--3--3----3----3--3-- 
A--3--3----3----3--3-- 
E--1--1----1----1--1--

Verse: But on the eve of great battle  
e---------------------------------- 
B------------------------------------ 
G--------3----3--------------------- 
D--------3----3--------3----3------ 
A--------1----1--------3----3------ 
E----------------------1----1------- 

e------------------------------------ 
B----------------------------------- 
G--------5-----5--------------------- 
D--------5-----5--------5----5------- 
A--------3-----3--------5----5------ 
E-----------------------3----3------ 

e------------------------------------------6--6--xx 
B-----------------8----8--x-x--------------6--6--xx 
G-----------------8----8--x-x--------------7--7--xx 
D-----------------8----8--x-x--------------8--8--xx 
A-------/6----6--(6)--(6)-x-x--------------8--8--xx 
E--------------------------------6----6----6--6--xx 

e--1--1----1----1--1-- 
B--1--1----1----1--1-- 
G--2--2----2----2--2-- 
D--3--3----3----3--3-- 
A--3--3----3----3--3-- 
E--1--1----1----1--1-- 


Chorus: 
e--1--1--3--3-----6--1-- 
B--3--1--4--3--8--6--1-- 
G--3--2--5--4--8--7--2-- 
D--3--3--5--5--8--8--3-- 
A--1--3--3--5--6--8--3-- 
E-----1-----3-----6--1-- 

Bridge:
e--1--1--2--3--3----3--3--3------------------- 
B--1--1--2--3--3----3--3--3------------------- 
G--2--2--3--4--4----4--4--4------------------- 
D--3--3--4--5--5----5--5--5------------------- 
A--3--3--4--5--5----5--5--5-------1--3--1----- 
E--1--1--2--3--3----3--3--3--1/3-----------3-- 

e--1--1----1--1--1----1--1--2--3----- 
B--1--1----1--1--1----1--1--2--3----- 
G--2--3----2--2--2----2--2--3--4----- 
D--3--3----3--3--3----3--3--4--5----- 
A--3--3----3--3--3----3--3--4--5----- 
E--1--1----1--1--1----1--1--2--3-----  

_____________________________________________________________________________

"Bang Bang"
Tuning: normal

Bang Bang 

Verse
e---------------------------------------
b----9--9-------------------------------
g----9--9--9/11-9-----------------------
d----9--9--9/11-9--9/11-9---------------
a----7--7----------9/11-9---------7-7h9-
E---------------------------7--9--------



Bridge
e-4--4----x--5----7---
B-5--5----x--5----7---
G-4--4----x--6----8---
D-6--6----x--7----9---
A-4--4----x--7----9---
E------------5----7--- x 3 

e--5-5---4-4----7-7---7--
B--5-5---5-5----9-9---7--
G--6-6---4-4----9-9---8--
D--7-7---6-6----9-9---9--
A--7-7---4-4----7-7---9--
E--5-5----------------7--

Solo
e---------------------------------------------------------- 
B---------------------------------------------------------- 
G-9h11---9----6h9--6------6h9--6-------6h9--6-------------- 
D---------------------9-----------9------------9---6------- 
A---------------------------------------------------------- 
E---------------------------------------------------------- 


e---------------------------------------------------------- 
B---------------------------------------------------------- 
G-----------------------------9-9h11--9-------------------- 
D---------------9-9-9-9-9h11----------------------9--11-/11 
A--9--7---9/11----------------------------7-9/11----------- 
E---------------------------------------------------------- 

e------------------------------------ 
B------------------------------------ 
G---------------r11---9-------------- 
D-------------------------r11---9---- 
A------------------------------------ 
E------------------------------------  


Mission 
These are the basic chords:

e--4--6--4--4--4--4-- 
B--6--7--6--4--6--4-- 
G--6--8--6--5--6--5-- 
D--6--8--6--6--6--6-- 
A--4--6--4--6--4--6-- 
E------------4-----4-- 
_____*______*_____ 
*=only play for one beat (not a whole measure)...you'll hear it 

Chorus:

e-----2--1-- 
B-----2--1-- 
G-----3--2-- 
D--8--4--3-- 
A--8--4--3-- 
E--6--2--1-- 

Leave out the F(last chord on the pause) 

Little funk break down: ("We are not so...")

e--2--1--4--1--2--1--4--1 
B--2--2--4--2--2--2--4--1 
G--3--3--5--3--3--3--5--2 
D--4--3--6--3--4--3--6--3 
A--4--1--6--1--4--1--6--3 
E--2------4-----2-----4--1  


Drive 
[ Tab from: http://www.guitartabs.cc/tabs/d/dispatch/bang_bang_tab_ver_4.html ]
Verse
E-------------------------------
B-------------------------------
G-----------------------2-2-2-2-
D--0h2-2-2--------2-2-2-2-2-2-2-
A--0h2-2-2--------2-2-2-0-0-0-0-
E--0---0-0-3-2-0--0-0-0---------

Chorus
E-----3----- ------
B--5--3--2-- -2-22-
G--4--0--2-- -2-22-
D--2--0--2-- -2-22-
A-----0----- ------
E-----3----- ------

Bridge
E-------------------------------------------
B--5-5-5-5-5-5-5-5-5-5-10-10-10-10-10-8----- just mess around here
G--4-4-4-4-4-4-4-4-4-4------------------9-7-
D--2-2-2-2-2-2-2-2-2-2----------------------
A-------------------------------------------
E-------------------------------------------  

Two Coins 
submitted by Josh Seitz

D C G
------------------3-0---------
------------------2-2--1------
---0--4h5p4--0----3-3--0------
---------------0-------2------
-----------------------3--2---
--------------------------3---

--------------------------------3-0---------
--------------------------------2-2--1------
---3p0-0-3p0-----0--4h5p4--0----3-3--0------
-------------3p0-------------0-------2------
-------------------------------------3--2---
----------------------------------------3---

Plays once through, then repeats the top part over and over again.  


Railway 


INTRO
-10--8--6--3-----10--8--6--1---
-10--8--6--3-----10--8--6--1---
-11--9--7--3-----11--9--7--2---
-------------------------------
-------------------------------
-------------------------------

Main chord part *listen to the song for when to play the () notes*
A# Gm C F
-6------3-------8-------1----------
-6------3-------8-------1----------
-7------3-------9-------2----------
-8------5-------10------3----------
(8)----(5)-----(10)----(3)---------
(6)----(3)-----(8)-----(1)---------

PLAYED WITH WAH-WAH PEDAL
------------------------------------------------
------------------------------------------------
-------------3---3h5---------------3---3h5------
-----3---3h5---5-----------3---3h5---5----------
-3h5---5---------------3h5---5------------------
------------------------------------------------

------------------------------------------------
------------------------------------------------
-------------3---3h5-5-5-5b6r5p3---3---------3--
-----3---3h5---5-----------------5---5-5p3h5----
-3h5---5----------------------------------------
------------------------------------------------

-------------6---6h8---------------6---6h8------
-----6---6h8---8-----------6---6h8---8----------
-5s7---7---------------5s7---7------------------
------------------------------------------------
------------------------------------------------
------------------------------------------------

-------------6---6h8--8-8-8b9r8p6---6-------------------------
-----6---6h8---8------------------8---8-6---------------
-5s7---7--------------------------------------------
------------------------------------------------
------------------------------------------------
------------------------------------------------  

_____________________________________________________________________________

Whirlwind 

Intro/Verse

e - - - - 0 - - 0 - - - - 0 / 0 - - 0 - 0 - - - - 0 - - -
B - - - - 5 - - 5 - - - - 2 / 3 - - 3 - 3 - - - - 2 - - -
G - - - - 0 - - 0 - - - - 0 / 0 - - 0 - 0 - - - - 0 - - -
D - - - - 7 - - 7 - - - - 4 / 5 - - 5 - 5 - - - - 2 - - -
A - - - - - - - - - - - - - - - - - - - - - - - - - - 0 -  
E - - - - - - - - - - - - - - - - - - - - - - - - - - - - 


“you better dig...”

e - - - 2 - -2 - -2 - -2 - - - / 7 - 7 - x - x - x - 7 - 7 - 8 - 7 - - 
B - - - 0 - -0 - -0 - -0 - - - / 7 - 7 - x - x - x - 7 - 7 - 7 - 7 - - 
G - - - 2 - -2 - -2 - -2 - - - - - - - - - - - - - - - - - - - - - - -  
D - - - 1 - -1 - -1 - -1 - - - - - - - - - - - - - - - - - - - - - - -  
A - - - 2 - -2 - -2 - -2 - - - - - - - - - - - - - - - - - - - - - - -   
E - - - - - - - - - - - - - - - - - - -- - - - - - - - - - - - - - - -   

_____________________________________________________________________________

Outloud
Tuning: normal

A /=slide 

h=hammer on 

p=pull off 

X= mute 


Intro: There might be some muting I missed 

e-----X-----------X------------X-----------X-- 
B-----X-----------X------------X-----------X-- 
G-----X-----------X------------X-----------X-- 
D-----X-----------X------------X-----------X-- 
A--7--X--4--4--4--X---------7--X--4--4--4--X-- 
E--5--X--2--2--2--X--0h2/5--5--X--2--2--2--X-- 

e------------X-----------X-----------X 
B------------X-----------X-----------X 
G------------X-----------X-----7--9--X 
D------------X-----------X--7--7--9--X 
A---------7--X--4--4--4--X--7--5--7--X 
E--0h2/5--5--X--2--2--2--X--5--------X 

Verse #1: 

e------------------------------------------- 
B------------------------------------------- 
G------------------------------------------- 
D--7--X--4--4--4--X---------7--X--4--4--4--X 
A--7--X--4--4--4--X---------7--X--4--4--4--X 
E--5--X--2--2--2--X--0h2/5--5--X--2--2--2--X 

e------------------------------------------------- 
B------------------------------------------------- 
G------------------------------------------------- 
D---------7--X--4--4--4--X--------7--7--4--4--4----- 
A---------7--X--4--4--4--X--------7--7--4--4--4----- 
E--0h2/5--5--X--2--2--2--X--0--2--5--5--2--2--2----- 

e-------------------------------------------------- 
B-------------------------------------------------- 
G-------------------------------------------------- 
D---------7--X--4--4--4--X---------7--X--4--4--4--X 
A---------7--X--4--4--4--X---------7--X--4--4--4--X 
E--0h2/5--5--X--2--2--2--X--0h2/5--5--X--2--2--2--X 

e------------------ 
B------------------ 
G-----X-----7--9--X 
D--7--X--7--7--9--X 
A--7--X--7--5--7--X 
E--5--X--5--------X 

Chorus: 

e--------------------------------------------- 
B--------------------------------------------- 
G--7--X--9--------------------------7--X--9--- 
D--7--X--9--X-----7--X--4--4--4--X--7--X--9--X 
A--5--X--7--X-----7--X--4--4--4--X--5--X--7--X 
E-----------X--5--5--X--2--2--2--X-----------X 

e------------------------------------------------ 
B------------------------------------------------ 
G--------------------7--X--9--------------------- 
D--4--X--4--4--4--4--7--X--9--X--7--7--X--4--4--4 
A--4--X--4--4--4--4--5--X--7--X--7--7--X--4--4--4 
E--2--2--0--2--0--2-----------X--5--5--X--2--2--2 

e----------- 
B----------- 
G-----7--9-- 
D--X--7--9-- 
A--X--5--7-- 
E--X-------- 

Post-chorus: play similar to intro but little muting

Verse #1: once 

Chorus: 

Post-chorus: 
e--5--2------ 
B--5--2--7--9 
G--6--2--7--9 
D--7--4--7--9 
A--7--4--5--7 
E--5--2------ 

Verse #1: using the full bar chords for that fuller sound 

Chorus: 

Pre-Ending: play a total of six times! 

e-----5-----------2 
B-----5-----------2 
G-----6-----------2 
D--7-----4--4--4--4 
A--7-----4--4--4--4 
E--5-----2--2--2--2 

Ending: 
e----------
B----------
G--7--9----
D--7--9--7-
A--5--7--7-
E--------5-
Comments