Dismember - Of Fire Chords & Tabs

 

Of Fire Chords & Tabs

Dismember Chords & Tabs

Version: 1 Type: Tab 0 ratings
1 star 2 stars 3 stars 4 stars 5 stars
comments

Of Fire Tab

Dismember - Of Fire
>From the album Death Metal (Copyright 1997 Nuclear Blast)
Version 1.0 - October 2001
Transcribed by Johan Malm (soul_devourer@totaldeath.com)

/= slide down
\= slide up
h= hammer on

RIFF A (intro, verse)
|----------------------------------------------------------------|
|----------------------------------------------------------------|
|----------------------------------------------------------------|
|-------9--------------9--------------9----------------9---------|
|-----7---7-9-10-----7---7-9-10-----7---7-9-10-------7---10-9-10-|
|-0-0------------0-0------------8-8------------10-10-------------|
[ Tab from: http://www.guitartabs.cc/tabs/d/dismember/of_fire_tab.html ]
RIFF B (don't know what to call it but you'll know it when you hear it)
|----------------------------------------------------------------|
|----------------------------------------------------------------|
|-9-12-11-9-9-12-11-9-12-11-11-14-12-11--------------------------|
|----------------------------------------------------------------|
|----------------------------------------------------------------|
|----------------------------------------------------------------|

RIFF C (I raise my gun...)
|----------------------------------------------------------------|
|----------------------------------------------------------------|
|----------------------------------------------------------------|
|-9--------------------------------------------------------------|
|-7-7-7-9-10-9-7-5/10-5/9\7--------------------------------------|
|----------------------------------------------------------------|

RIFF D (before and during solo)
|--------------------------------|------------------|----------|
|--------------------------------|------------------|----------|
|--------------------------------|------------------|----------|
|-----9\7/9---12\11/12-----9\7/9-|------------------|-5-5------|
|-----7\5/7---10\-9/10-----7\5/7-|-10-12-10-9-7-5-7-|-3-3/9h10-|
|-0-0-------0----------0-0-------|------------------|----------|

I am working on the solo too (and Misanthropic from the same record)
Comments