Dismember - Misanthropic Chords & Tabs

 

Misanthropic Chords & Tabs

Dismember Chords & Tabs

Version: 1 Type: Tab 0 ratings
1 star 2 stars 3 stars 4 stars 5 stars
comments

Misanthropic Tab

Dismember - Misanthropic
>From the album Death Metal
Copyright 1997 Nuclear Blast
Transcribed by Johan Malm (soul_devourer@totaldeath.com)

RIFF A Intro
|------------------------------------------------|
|------------------------------------------------|
|------------------------------------------------|
|------------------------------------------------|
|----7"-10"----9"-10"-12"-----9"-10"----6"-7"-9"-|
|-0"--------8"------------10"--------7"----------|
[ Tab from: http://www.guitartabs.cc/tabs/d/dismember/misanthropic_tab.html ]
RIFF B Verse
|---------------------------------------------------------------------------------|
|---------------------------------------------------------------------------------|
|---------------------------------------------------------------------------------|
|-------------------------------------------------------------10-9-7----7---------|
|-7---7---10---9-10----12---10---9-10--7---7---10---9-10-7-7---------10---10-9-10-|
|---0---0----0------0-0---0----0---------0---0----0-------------------------------|

RIFF C (not really sure about this one)
|--------------------------------------------------------|
|--------------------------------------------------------|
|--------------------------------------------------------|
|--------------------------------------------------------|
|----7"-10"-9"----7"-12"-10"----7"-10"-9"-10"-12"-10"-9"-|
|-0"-----------0"------------0"--------------------------|

RIFF D (during solo, ending)
|-------------|
|-------------|
|-------------|
|-9------7----|
|-7--10--5--9-|
|----8------7-|

RIFF E (during and after solo)
|-----------------------------------------------------------------|
|-----------------------------------------------------------------|
|-----------------------------------------------------------------|
|-----------------------------------------------------------------|
|----7"-9"-10"-9h10p9-5"-9h10-----------7"-9"-10"-9h10-12"-9"-10"-|
|-0"--------------------------8"-7"--0"---------------------------|
Comments