Dismember - I Saw Them Die Chords & Tabs

 

I Saw Them Die Chords & Tabs

Dismember Chords & Tabs

Version: 1 Type: Tab 0 ratings
1 star 2 stars 3 stars 4 stars 5 stars
comments

I Saw Them Die Tab

I Saw them Die
By Dismember
Tabbed by Gabriel Hidalgo
tune 2.5 steps down
                               last two times
|-----------------------------|-------------------------------------------|
|-----------------------------|-------------------------------------------|
|-----------------------------|-------------------------------------------|
|-----------------------------|--6-6/5-5---9--9/8---8/9---9/8-------------|
|-6--6/5--5--9--9/8--8/9--9/8-|-------------------------------------------|
|-4--4/3--3--7--7/6--6/7--7/6-|-------------------------------------------|

little fill
|----------------------|
|----------------------|
|----------------------|
|---------7-----9-8----|
|-8h9p8h9---8-7-----9--|
|----------------------|

prechorus (after the "little fill")
|-------------------------|
|-------------------------|
|-------------------------|
|-------------------------|
|-2----2--5/8--8/5--5/8---|
|-0-00-0--3/6--6/3--3/6---|
[ Tab from: http://www.guitartabs.cc/tabs/d/dismember/i_saw_them_die_tab.html ]
chorus
|------------------------------------------------------------------------|
|------------------------------------------------------------------------|
|------------------------------------------------------------------------|
|--8---8---9----9----8---9----8----8---9---------------------------------|
|--6-6---6---6--7--7---7---7--6--6---6---6--5b6r5~-----------------------|
|------------------------------------------------------------------------|

Interlude  (this one is not correct)
|------------------------------------------------------------------------|
|------------------------------------------------------------------------|
|------------------------------------------------------------------------|
|------------------------------------------------------------------------|
|-3-33---4-3-1-3-4--4-44--4-3-1--6-4-3-----------------------------------|
|-1-11--------------2-22----------------6-3------------------------------|


That's almost it. There are a few missing pieces but you can figure it out.
Comments