Disidente - Atary Chords & Tabs

 

Atary Chords & Tabs

Disidente Chords & Tabs

Version: 1 Type: Tab 0 ratings
1 star 2 stars 3 stars 4 stars 5 stars
comments

Atary Tab

   
-------------------------------------------------------------------------------
			     ATARY - Disidente
-------------------------------------------------------------------------------
Tabbed by:Rafa88offspring
Email:rafa88offspring@hotmail.com

Tuning: C#-G#-C#-F#-A#-D#

Intro (Guitarra 1) 
D#|-----------------------------------|
A#|-----------------------------------|
F#|------------------------77---7-----|
C#|--------------------5-5-55-5-5-55--|
G#|-9-9-99-9-9-99-10-9-5-5-55-5-5-55--|
C#|-0-0-00-0-0-00-0--0-5-5-55-5-5-55--|

(Guitarra 2) empieza despues de la primera vez que se toca el primer riff
D#|-------------------------------------------------------------------------|
A#|-------------------------------------------------------------------------|
F#|-------------------------------------------------------------------------|
C#|-+5+5+5+5+5--------------------------------------------------------------|
G#|----------------------------------------------+5+5+5+5+5+5+5+5+5+5+5+5*--|
C#|------------+5+5+5+5+5+5+5+5+5+5+5+5+5+5+5+5*----------------------------|

D#|---------------|
A#|---------------|
F#|---------------|
C#|-+5+5+5-+4-+5--|
G#|---------------|
C#|---------------|

despues se vuelve a tocar por tercera vez lo de la guitarra 1 pero no se
toca la guitarra 2 hasta la cuarta vez, que se toca esto:
[ Tab from: http://www.guitartabs.cc/tabs/d/disidente/atary_tab.html ]
(Guitarra 2)
D#|-------------------------------------------------------------------------|
A#|-------------------------------------------------------------------------|
F#|-------------------------------------------------------------------------|
C#|-+5+5+5+5+5--------------------------------------------------------------|
G#|----------------------------------------------+5+5+5+5+5+5+5+5+5+5+5+5*--|
C#|------------+5+5+5+5+5+5+5+5+5+5+5+5+5+5+5+5*----------------------------|

D#|-----------------|
A#|-----------------|
F#|----+4----+5-----|
C#|-+5----+5----+5--|
G#|-----------------|
C#|-----------------|


Verso
(Guitarra 1) Palm muted
D#|------------------------------------|
A#|------------------------------------|
F#|------------------------------------|
C#|--------------------5-5-55-5-55-55--|
G#|-9-9-99-9-9-99-10-9-5-5-55-5-55-55--|
C#|-0-0-00-0-0-00-0--0-5-5-55-5-55-55--|

Riff después del verso (lleva palm muted en algunas partes, ustedes 
calcúlenle)
D#|-------------------------|
A#|-------------------------|
F#|-------------------------|
C#|-------4/5/4----------5--|
G#|-0-00---------0-00--3----|
C#|-0-00---------0-00-------|

Coro
D#|--------------------|
A#|--------------------|
F#|---------------777--| x 2
C#|-22-4/5/4--555-555--|
G#|-22--------555-555--|
C#|-22--------555-555--|

esto solo se toca en el 1er coro, en
los demas se sigue tocando lo de arriba
D#|--------------------|
A#|--------------------|
F#|--------------------|
C#|-22-4/5/4--555-555--|
G#|-22--------555-555--|
C#|-22--------555-555--|


pues basicamente eso es toda la rola, por ahi se repiten todos estos riffs
pero ya es bastante facil saber donde se toca cada cosa jeje, si tienen
alguna duda, sugerencia, o cualquier cosa aqui esta mi mail:
rafa88offspring@hotmail.com



| *  let ring
| ^  bend
| /  slide up
| \  slide down
| h  hammer-on
| p  pull-off
| ~  vibrato
| +  harmonic
| x  Mute note
===============================================================================
Comments