Dishwalla - Mad Life Chords & Tabs

 

Mad Life Chords & Tabs

Dishwalla Chords & Tabs

Version: 1 Type: Tab 0 ratings
1 star 2 stars 3 stars 4 stars 5 stars
comments

Mad Life Tab

   
Song Title: Mad Life
Artist: Dishwalla
Album: Opaline
Tabbed by GuitarSuperstar

Tuning (low to high): E A D G B E (Standard)
 
Intro
e-------------------------------------------------------
B--7-----7-----5-----5-----3-----3-------3---------3----
G----0-----0-----0-----0-----0-----0-------------0---0--
D-------------------------------------------------------
A--7---7-----7-5---5-----5-3---3-----3-2---2-2h3--------
E-------------------------------------------------------

Verse chords
e----0----0----2----0----
B----3----0----3----3----
G----0----0----2----0----
D----2----2---------2----
A----3----2---------3----
E------------------------

Prechorus chords
e----0----0----
B----1----1----
G----2----0----
D----2----2----
A---------3----
E--------------
[ Tab from: http://www.guitartabs.cc/tabs/d/dishwalla/mad_life_tab.html ]
Chorus chords (1st part)
e----3----2----0----0----2----
B----3----3----1----0----3----
G----0----2----2----0----2----
D----0---------2----2---------
A----2--------------2---------
E----3------------------------

Chorus chords (2nd part)  and before second verse
e----3----2----0----0----|----0----2----0----2----
B----3----3----1----0----|----0----3----3----3----
G----0----2----2----0----|----0----2----0----2----
D----0---------2----2----|----2---------2---------
A----2--------------2----|----2---------3---------
E----3-------------------|------------------------

End song with these chords:

(Hold me up...)
e----0----2----0----0--0--2----
B----0----3----3----0--3--3----
G----0----2----0----0--0--2----
D----2---------2----2--2-------
A----2---------3----2--3-------
E------------------------------

(How I need someone to know...)
e----0----2----0----0----2----0----
B----0----3----3----0----3----3----
G----0----2----0----0----2----0----
D----2---------2----2---------2----
A----2---------3----2---------3----
E----------------------------------
Comments