Dishwalla - Every Little Thing Chords & Tabs

 

Every Little Thing Chords & Tabs

Dishwalla Chords & Tabs

Version: 2 Type: Tab 0 ratings
1 star 2 stars 3 stars 4 stars 5 stars
comments

Every Little Thing Tab

Tabbed by:GLENDELL JUEGO
Email:www.sixstringsounds@hotmail.com
A great song from a great artist!! I dedicatre this song to Hericka Joy.. I know she
would never get into this..but still, this is 4 her...this song reminds me of you!!


Tuning: STANDARD TUNING


INTRO AND VERSE:
[ Tab from: http://www.guitartabs.cc/tabs/d/dishwalla/every_little_thing_tab_ver_2.html ]
e|--------------------------------------------------------------------0------------------|
B|---------0------0-----------------0------0----------0---------------0------------------|
G|-------4------4------3/4--------3------3----------4------3/4--------1------------------|
D|-----4------4------4----------4------4----------4------4-----------2-------------------|
A|---2--------------------------------------------------------------2--------------------|
E|----------------------------2-----------------4------------------0---------------------|
  PRE-CHORUS: WILL YOU FIND OUT........
e|----------0------0--0-------------------------------------------------------------|
B|----0--0--0------0--0-------------------------------------------------------------|
G|----3--3--3------1--1-------------------------------------------------------------|
D|----4--4--4------2--2-------------------------------------------------------------|
A|----4--4--4------2--2-------------------------------------------------------------|
E|----2--2--2------0--0-------------------------------------------------------------|
  CHORUS:
e|--------------------------------0-0--|
B|-----0-0-0-0--0-0-0---0-0-0-0---0-0--|
G|-----4-4-4-4--3-3-3---4-4-4-4---1-1--|
D|-----4-4-4-4--4-4-4---4-4-4-4---2-2--|
A|-----2-2-2-2--4-4-4---X-X-X-X---2-2--|
E|--------------2-2-2---4-4-4-4---0-0--|
  BRIDGE:
e|-------------------------------------------------------|
B|-------------------------------------------------------|
G|--------------1-1--------------1-1----------REPEAT-2X--|
D|---6-6-6-6----2-2----6-6-6-6---2-2----4----------------|
A|---6-6-6-6----2-2----6-6-6-6---2-2----4----------------|
E|---4-4-4-4----0-0----4-4-4-4---0-0----2----------------|

THEN GO BACK TO PRE-CHORUS!
CHORUS!

LYRICS:

Let me in
to see you in the morning light
to get me on and all along the tears they come
see all come
I want you to believe in life
but I get the strangest feeling that you've gone away
will you find out who you are too late to change?
I wish I could be
every little thing you wanted
all the time
I wish I could be
every little thing you wanted
all the time
some times

lift me up
just lift me up don't make a sound
and let me hold you up before you hit the Ground
see all come
you say your all right
but I get the strangest feeling
that you've gone away- you've gone away
and will you find out who you are too late to change?

I wish I could be
every little thing you wanted
all the time
I wish I could be
every little thing you wanted
all the time
some times

Don't give me up
don't give me up tonight
or soon nothing will be right at all
salvation
will you find out who you are too late to change?

I wish I could be
every little thing you wanted


THATS ALL GUYS!! ENJOY!
GODBLESS
ALWAYS PLAY WITH YOUR HEART!!
SUGGESTION/COMMENTS???!
Comments