Disgruntled Monkey Music - Zero Tolerance Chords & Tabs

 

Zero Tolerance Chords & Tabs

Disgruntled Monkey Music Chords & Tabs

Version: 2 Type: Bass Tab 0 ratings
1 star 2 stars 3 stars 4 stars 5 stars
comments

Zero Tolerance Bass Tab

band: Disgrintled Monkey Music
song: Zero Tolerance
      of off "Talentless" EP

	This is just your average punk rock song by your average
	punk rock band

Normal tuning
Verse	G>---------------------------------
	D>---------------------------------
	A>---------------------------------
	E>--5-5-5-5-3-3-3-3-5-5-5-5-3-3-3-3
[ Tab from: http://www.guitartabs.cc/tabs/d/disgruntled_monkey_music/zero_tolerance_btab_ver_2.html ]
Chorus	G>-------------------------------------
	D>-------------------------------------
	A>-3-3---3-3---3-3---3-3---3-3---3-3---
	E>----3-3---3-3---3-3---3-3---3-3---3-3

	G>--------------------
	D>--------------------
	A>-3h5-5-5-5---5-5-5-5
	E>-------------------- 	 

Bridge	G>-------------------------------
	D>-------------------------------
	A>-4-4-4-4-----------------------
	E>--------4-4-4-4-2-2-2-2-4-4-4-4

Song Structure
	Verse  X 7
	Chorus X 1
	Bridge X 2
	Verse  X 8
	Chorus X 1
	Bridge X 6

tabbed By JP  
www.j_c_porter@hotmail.com
Comments