Discover America - Green Eyes Chords & Tabs

 

Green Eyes Chords & Tabs

Discover America Chords & Tabs

Version: 1 Type: Tab 0 ratings
1 star 2 stars 3 stars 4 stars 5 stars
comments

Green Eyes Tab

   
Discover America
from the album Psychology
Tooth and Nail Records 2005

	     F
You got the biggest green eyes

	    Am
They'd ever seen

	    F
And in that red dress

            Am
There's no contest

	        C
You're the prettiest one around

		F			 Am
And you reach down in your purse to check your phone

		      C                F			Am
And already there's five guys trying to light it when they realize


Chorus:

	   C                       F
That everybody wants to know your name

		   Am
And they're just thinking of the perfect words to break the ice

	F		      Am
But every time it's just in vain

		   C
Cause you're not impressed
		
		F
But you're so polite
(X2)

	       Am		 F
I know I'm not the sharpest knife you've ever seen

		   C
I don't have the clothes

                  C
I don't have the hair

	            F		    Am
I know what's going on and I'm self aware
[ Tab from: http://www.guitartabs.cc/tabs/d/discover_america/green_eyes_tab.html ]
	   C               F                 Am
And for some weird reason that means bore to you

	                      F	              Am
Then what any two-bit scene kid could say to you

Chorus

Interlude:


E|--------------------------------------------------------------------------|
B|--------------------------------------------------------------------------|
G|--------------------------------------------------------------------------| 
D|-----9------------------------------------------------9-------------------|
A|--------7-------7---10-------10----12--------------------------7----------|
E|--------------------------------------------------------------------------|


E|--------------------------------------------------------------------------|
B|--------------------------------------------------------------------------|
G|-----------------------------------------------------9-9------------------| 
D|-----9-9-----------12--12--9-9--------12-12--9--9---------12-12-----------|
A|-----------12--12---------------------------------------------------------|
E|--------------------------------------------------------------------------| (X2)

Chorus
Comments