Discordance Axis - Vertigo Index Chords & Tabs

 

Vertigo Index Chords & Tabs

Discordance Axis Chords & Tabs

Version: 1 Type: Tab 0 ratings
1 star 2 stars 3 stars 4 stars 5 stars
comments

Vertigo Index Tab

Band: Discordance Axis
Song: Vertigo Index
Album: Jouhou
Tabbed by Aeon Phoenix
[ Tab from: http://www.guitartabs.cc/tabs/d/discordance_axis/vertigo_index_tab.html ]
Repeat these riffs as needed.    
E  :------------------|----------------|------------------|
B  :------------------|----------------|------------------|
G  :------------------|----------------|------------------|
D  :------------------|----------------|2-0-1-0-4-0-1-1-1-|
A  :2-0-1-0-4-0-1-1-1-|2-0-1-0-4-0-1-2-|2-0-1-0-4-0-1-1-1-|
D  :2-0-1-0-4-0-1-1-1-|2-0-1-0-4-0-1-2-|2-0-1-0-4-0-1-1-1-|
  
E  :-------------------|-------------------|-------------------|
B  :-------------------|-------------------|-------------------|
G  :-------------------|-------------------|-------------------|
D  :1-1-1-1-1-1*-------|1-1-1-1-1-1*-------|1-1-1-1-1-1*-------|
A  :1-1-1-1-1-1*-------|1-1-1-1-1-1*-------|1-1-1-1-1-1*-------|
D  :1-1-1-1-1-1*-------|1-1-1-1-1-1*-------|1-1-1-1-1-1*-------|
            
E  :-------------------|---------------------|
B  :-------------------|---------------------|
G  :---------------6---|3-3-3-3-3-3--6-------|
D  :1-1-1-1-1-1*---4---|1-1-1-1-1-1--4-------|
A  :1-1-1-1-1-1*---5---|2-2-2-2-2-2--5-------|
D  :1-1-1-1-1-1*-------|---------------------|
Comments