Discordance Axis - Killing Yield Chords & Tabs

 

Killing Yield Chords & Tabs

Discordance Axis Chords & Tabs

Version: 1 Type: Tab 0 ratings
1 star 2 stars 3 stars 4 stars 5 stars
comments

Killing Yield Tab

"Killing Yield" - by Discordance Axis - Original Sound Version 1992-1995

Drop D tuning: 6:D  5:A  4:D  3:G  2:B  1:E

Intro Riff:
|--------------|
|--------------|
|--------------|
|--------------|
|-0-00-3-2-0-1-|
|-0-00-3-2-0-1-|

2nd Riff:
|-----------|
|-----------|
|----------:|
|3-***3-666-|
|3-***3-666-|
|1-***1-444-|
[ Tab from: http://www.guitartabs.cc/tabs/d/discordance_axis/killing_yield_tab.html ]
Blast beat riff:   Last time (4th): 
|----------------| |---------------|
|----------------| |---------------|
|--------2------:| |--------2------|
|--------2-------| |--------2------|
|0-1-2-1-0-0-3-2-| |0-1-2-1-0-3-2-1|
|0-1-2-1---0-3-2-| |0-1-2-1---3-2-1|

Riff 1- Once

Riff 2- First Guitar- 4x
        Both Guitars- 16x

Riff 3- First Guitar- 2x
        Both Guitars- 4x
Comments