Discordance Axis - Carcass Lottery Chords & Tabs

 

Carcass Lottery Chords & Tabs

Discordance Axis Chords & Tabs

Version: 1 Type: Tab 0 ratings
1 star 2 stars 3 stars 4 stars 5 stars
comments

Carcass Lottery Tab

Band: Discordance Axis
Song: Carcass Lottery
Album: Jouhou
Tabbed by Aeon Phoenix
[ Tab from: http://www.guitartabs.cc/tabs/d/discordance_axis/carcass_lottery_tab.html ]
Intro here                Variation       
E:------------------------3--3-3--3--3-3---------|
B:------------------------3--3-3--3--3-3---------|
G:5--5-5--5--5-5--5--5-5--5--5-5--5--5-5--1---4-4|
D:3--3-3--3--3-3--3--3-3--3--3-3--3--3-3--1---2-2|
A:4--4-4--4--4-4--4--4-4--4--4-4--4--4-4--0---3-3|
D:----------------------------------------1------|
Verse riff               Outro
E:-----------------------|---------|
B:-------------------0-0-|---------|
G:-------------------4-4-|4--------|
D:-------------------2-2-|2--6-2-4-|
A:2-2-2-0-0-0-1-1-1--3-3-|3--6-2-4-|
D:2-2-2-0-0-0-1-1-1------|---6-2-4-|

The text export is kind of crappy thanks to Tabit, but all in all it should be easy to put things together.
Comments