Discon Nected - I Wanna Be A Prep Chords & Tabs

 

I Wanna Be A Prep Chords & Tabs

Discon Nected Chords & Tabs

Version: 1 Type: Tab 0 ratings
1 star 2 stars 3 stars 4 stars 5 stars
comments

I Wanna Be A Prep Tab

intro/verse  (1 measure of each chord)
---------------------------------------------------------------------
---------------------------------------------------------------------
-----------------7---------------------------------------------------
-9-------7-------7--------9-----------------------------------------
-9-------7-------9--------9------------------------------------------
-7-------5----------------7-------------------------------------------

chorus
---------------------------------------------------------------------
---------------------------------------------------------------------
---------------------------------------------------------------------
-6-------2--(x3)---4-------(2 measures of last chord)----------------
-6-------2---------4-------------------------------------------------
-4-------0---------2-------------------------------------------------
[ Tab from: http://www.guitartabs.cc/tabs/d/discon_nected/i_wanna_be_a_prep_tab.html ]
solo                  part 1
--------------------------------------------------------------------|-------------------------------------------------------
--------------------------------------------------------------------|-14-14-14-14-14-14-14-14-14---------------------------
-9-9-9-9-9/12-12-12-12----------------------9-9-9-9-9/12-12-12-12-12|--14-14-14-14-14-14-14-14-14---------------------------
-----------------------9-9-9-9-9/12-12-12-12------------------------|-------------------------------------------------------
--------------------------------------------------------------------|-------------------------------------------------------
--------------------------------------------------------------------|-------------------------------------------------------

----------------------------------------------------------------------------------------------------------------------------
----------------------------------------------------------------------------------------------------------------------------
-(part 1)------13--12--11--10--9----9-9-9-9-9/12-12-12-12--------------------------9-9-9-9-9/12-12-12-12--------------------
-------------14--13--12--11--10-----9-9-9-9-9/12-12-12-12--------------------------9-9-9-9-9/12-12-12-12--------------------
---------------------------------------------------------12-12-12-12-12\9-9-9-9-9-9---------------------12-(2 mea.)---------
---------------------------------------------------------12-12-12-12-12\9-9-9-9-9-9---------------------12------------------

there it is.  the band only plays this song live so you wont find it anywhere until they release it on cd.  any questions keep to yourself
cause i dont know em.
Comments