Dirty Rotten Imbeciles - Shame Chords & Tabs

 

Shame Chords & Tabs

Dirty Rotten Imbeciles Chords & Tabs

Version: 1 Type: Tab 0 ratings
1 star 2 stars 3 stars 4 stars 5 stars
comments

Shame Tab

shame


D.R.I.


TRANSCRIBED BY RUDY GUZMAN


guzman_84@hotmail.com


:---------------------------------------------------------|
:---------------------------------------------------------|
:---------------------------------------------------------|
:---------------------------------------------------------|
:--9999--5-4--9999--5-4--9999--5-4--9999--5-4--9999--5-4--|
:--7777--3-2--7777--3-2--7777--3-2--7777--3-2--7777--3-2--|

:---------------------------------------------------------|
:---------------------------------------------------------|
:---------------------------------------------------------|
:---------------------------------------------------------|
:--9999--5-4--9999--5-4--9999--5-4--9999--5-4--9999--5-4--|
:--7777--3-2--7777--3-2--7777--3-2--7777--3-2--7777--3-2--|


e:--------------------------------------------------------|
B:--------------------------------------------------------|
G:--------------------------------------------------------|
D:--999--7--9--10101010--5-4--999--7--9--10101010--5-4----|
A:--777--5--7--8-8-8-8---3-2--777--5--7--8-8-8-8---3-2----|
E:--------------------------------------------------------|

:---------------------------------------------------------|
:---------------------------------------------------------|
:---------------------------------------------------------|
:---------------------------------------------------------|
:--9999--5-4--9999--5-4--9999--5-4--9999--5-4--9999--5-4--|
:--7777--3-2--7777--3-2--7777--3-2--7777--3-2--7777--3-2--|

:---------------------------------------------------------|
:---------------------------------------------------------|
:---------------------------------------------------------|
:---------------------------------------------------------|
:--9999--5-4--9999--5-4--9999--5-4--9999--5-4--9999--5-4--|
:--7777--3-2--7777--3-2--7777--3-2--7777--3-2--7777--3-2--|


e:--------------------------------------------------------|
B:--------------------------------------------------------|
G:--------------------------------------------------------|
D:--999--7--9--10101010--5-4--999--7--9--10101010--5-4----|
A:--777--5--7--8-8-8-8---3-2--777--5--7--8-8-8-8---3-2----|
E:--------------------------------------------------------|

solo
e:--------------------------------------------------------------------------------------|
B:-00--55-33-00--77-55-00--77-88-1010-88-777--00--55-33-00--77-55-00--77-88-1010-88-777-|
G:--------------------------------------------------------------------------------------|
D:--------------------------------------------------------------------------------------|
A:--------------------------------------------------------------------------------------|
E:--------------------------------------------------------------------------------------|

e:-----------------------------------------------------------------------------------------|
B:-77-8-77-9-77-10-77-9-7777-10-77-9-77-88-777--88-77-1010-777-88-7777-9999-10101010-121212|
G:-----------------------------------------------------------------------------------------|
D:-----------------------------------------------------------------------------------------|
A:-----------------------------------------------------------------------------------------|
E:-----------------------------------------------------------------------------------------|
[ Tab from: http://www.guitartabs.cc/tabs/d/dirty_rotten_imbeciles/shame_tab.html ]
e:-----------------------------------------------------------------------------------------|
B:-14141414--141414-15-141414-16-141414-17-141414-16-14141414--16-141414-17-141414-16-1414-|
G:-----------------------------------------------------------------------------------------|
D:-----------------------------------------------------------------------------------------|
A:-----------------------------------------------------------------------------------------|
E:-----------------------------------------------------------------------------------------|

:------------------------------------------------------------------------------------------|
:--17-1414-16-1414--17-1414-16-1414--17-1414-16-1414--17Bp14--------191919-21-1919-22-1919-|
:------------------------------------------------------------16~~~-------------------------|
:------------------------------------------------------------------------------------------|
:------------------------------------------------------------------------------------------|
:------------------------------------------------------------------------------------------|

e:----------------------------------------------------------------------|
B:-21--1919-21-1919-22-1919--1919-21-1919-22-1919--1919-21-1919-22-1919-|
G:----------------------------------------------------------------------|
D:----------------------------------------------------------------------|
A:----------------------------------------------------------------------|
E:----------------------------------------------------------------------|

e:-------------------------------------------------------------|
B:-1919-21-1919-22-1919--1919-21-1919-22-191919--22B--22B~~~~--|
G:-------------------------------------------------------------|
D:-------------------------------------------------------------|
A:-------------------------------------------------------------|
E:-------------------------------------------------------------|

:---------------------------------------------------------|
:---------------------------------------------------------|
:---------------------------------------------------------|
:---------------------------------------------------------|
:--9999--5-4--9999--5-4--9999--5-4--9999--5-4--9999--5-4--|
:--7777--3-2--7777--3-2--7777--3-2--7777--3-2--7777--3-2--|

:---------------------------------------------------------|
:---------------------------------------------------------|
:---------------------------------------------------------|
:---------------------------------------------------------|
:--9999--5-4--9999--5-4--9999--5-4--9999--5-4--9999--5-4--|
:--7777--3-2--7777--3-2--7777--3-2--7777--3-2--7777--3-2--|


e:--------------------------------------------------------|
B:--------------------------------------------------------|
G:--------------------------------------------------------|
D:--999--7--9--10101010--5-4--999--7--9--10101010--5-4----|
A:--777--5--7--8-8-8-8---3-2--777--5--7--8-8-8-8---3-2----|
E:--------------------------------------------------------|

:---------------------------------------------------------|
:---------------------------------------------------------|
:---------------------------------------------------------|
:---------------------------------------------------------|
:--9999--5-4--9999--5-4--9999--5-4--9999--5-4--9999--5-4--|
:--7777--3-2--7777--3-2--7777--3-2--7777--3-2--7777--3-2--|

:---------------------------------------------------------|
:---------------------------------------------------------|
:---------------------------------------------------------|
:---------------------------------------------------------|
:--9999--5-4--9999--5-4--9999--5-4--9999--5-4--9999--5-4--|
:--7777--3-2--7777--3-2--7777--3-2--7777--3-2--7777--3-2--|


e:----------------------------------------------------|
B:----------------------------------------------------|
G:----------------------------------------------------|
D:--999--7--9--10101010--5-4--999--7--9--10101010--5--|
A:--777--5--7--8-8-8-8---3-2--777--5--7--8-8-8-8---3--|
E:----------------------------------------------------|
Comments