Dirty Rotten Imbeciles - On My Way Home Chords & Tabs

 

On My Way Home Chords & Tabs

Dirty Rotten Imbeciles Chords & Tabs

Version: 1 Type: Tab 0 ratings
1 star 2 stars 3 stars 4 stars 5 stars
comments

On My Way Home Tab

on my way home


D.R.I.


TRANSCRIBED BY RUDY GUZMAN


guzman_84@hotmail.com

               pick slide
e:------------------------|
B:------------------------|
G:------------------------|
D:------------------------|
A:-12----------x\---------|
E:-10----------x\---------|

verse
e:---------------------------|
B:---------------------------|
G:---------------------------|
D:---------------------------|
A:-9-9-9-9-9--9-9--9-9-9-9-9-|
E:-7-7-7-7-7--7-7--7-7-7-7-7-|


e:------------------------------------|
B:------------------------------------|
G:-9B--9--7h9p7---7ah--9p7------------|
D:--------------9----------9p7--------|
A:-----------------------------9p7----|
E:---------------------------------10-|


:------------------------------------------------------------------------------------------|
:------------------------------------------------------------------------------------------|
:------------------------------------------------------------------------------------------|
:------------------------------------------------------------------------------------------|
:-9--9-9-9--9-9--10--10-10--11-11-11-11-12-12-12-12--11-11-11-11-9-9-9-9--9-9-9--5-5-5-5-5-|
:-7--7-7-7--7-7--8---8--8---9--9--9--9--10-10-10-10--9--9--9--9--7-7-7-7--7-7-7--3-3-3-3-3-|


e:----------------------------------------|
B:----------------------------------------|
G:----------------------------------------|
D:----------------------------------------|
A:-7-7-7-7-7--4---4---4---4---4---4----3--|
E:-5-5-5-5-5--2-0-2-0-2-0-2-0-2-0-2-0--1--|

[ Tab from: http://www.guitartabs.cc/tabs/d/dirty_rotten_imbeciles/on_my_way_home_tab.html ]
e:----------------------------------------------------------------------------------------|
B:----------------------------------------------------------------------------------------|
G:----------------------------------------------------------------------------------------|
D:-555555555-4444444444--555555555-4444444444--555555555-4444444444--555555555-4444444444-|
A:-333333333-2222222222--333333333-2222222222--333333333-2222222222--333333333-2222222222-|
E:----------------------------------------------------------------------------------------|

e:--------------------------------------------------------------------------------|
B:--------------------------------------------------------------------------------|
G:--------------------------------------------------------------------------------|
D:-555555555-4444444444--555555555-4444444444--555555555-4--4---4--4---4--4---4/5-|
A:-333333333-2222222222--333333333-2222222222--333333333-2--2---2--2---2--2---2/3-|
E:--------------------------------------------------------------------------------|

e:----------------------------------------------------------------------------------------|
B:----------------------------------------------------------------------------------------|
G:----------------------------------------------------------------------------------------|
D:-555555555-4444444444--555555555-4444444444--555555555-4444444444--555555555-4444444444-|
A:-333333333-2222222222--333333333-2222222222--333333333-2222222222--333333333-2222222222-|
E:----------------------------------------------------------------------------------------|

e:-----------------------------------------------------------------------------|
B:-----------------------------------------------------------------------------|
G:-----------------------------------------------------------------------------|
D:-555555555-4444444444--555555555-4444444444--555555555-4444444444--555-5--4--|
A:-333333333-2222222222--333333333-2222222222--333333333-2222222222--333-3--2--|
E:-----------------------------------------------------------------------------|
Comments