Dirty Rotten Imbeciles - How To Act Chords & Tabs

 

How To Act Chords & Tabs

Dirty Rotten Imbeciles Chords & Tabs

Version: 1 Type: Tab 0 ratings
1 star 2 stars 3 stars 4 stars 5 stars
comments

How To Act Tab

how to act


D.R.I.


TRANSCRIBED BY RUDY GUZMAN


guzman_84@hotmail.com


e:-----------4nh------------------4nh------------------------7nh-------5nh-----------------|
B:--------4nh------------------4nh-----------------------7nh---------------5nh---5nh---7nh-|
G:-----4nh------------------4nh------------12nh~~------------------------------------------|
D:-----------------------------------------------------------------------------------------|
A:-----------------------------------------------------------------------------------------|
E:-----------------------------------------------------------------------------------------|

e:12nh--------------------------|
B:-----12nh---------------------|
G:----------12nh----------------|
D:---------------12nh-----------|
A:--------------------12nh------|
E:-------------------------12nh-|

verse        Bar
e:----------------------------|
B:----------------------------|
G:----------------------------|
D:-2---------(2)--------------|
A:-2---------(2)--------------|
E:-0---------(0)--------------|

                  pm..........         ...........
:------------------------------------------------------------------------------------------|
:------------------------------------------------------------------------------------------|
:------------------------------------------------------------------------------------------|
:-4--4/5------------------------9\-------------------9\---4-4-4-4-4-4-4-4-4/5-5-5-5-5-5-5-5|
:-2--2/3--------2---------------7\---2---------------7\---2-2-2-2-2-2-2-2-2/3-3-3-3-3-3-3-3|
:---------9\----0--0-0-0-0-0-0-------0--0-0-0-0-0-0----------------------------------------|


e:------------------------------------------------------------------------------------|
B:------------------------------------------------------------------------------------|
G:------------------------------------------------------------------7B--10B---7B--10B-|
D:-7-7-7-7-7-7--10--7-7-7-7-7-7--10--5-5-5--10-10-10-10-7-7-7-7-7---------------------|
A:-5-5-5-5-5-5--8---5-5-5-5-5-5--8---3-3-3--8--8--8--8--5-5-5-5-5---------------------|
E:------------------------------------------------------------------------------------|

[ Tab from: http://www.guitartabs.cc/tabs/d/dirty_rotten_imbeciles/how_to_act_tab.html ]
e:-----------------------------------------------------------------------------------------|
B:-----------------------------------------------------------------------------------------|
G:-----------------------------------------------------------------------------------------|
D:-7-7-7-7-7-7--10--7-7-7-7-7-7--10--5-5-5--10-10-10-10-7-7-7-7-7--------------------------|
A:-5-5-5-5-5-5--8---5-5-5-5-5-5--8---3-3-3--8--8--8--8--5-5-5-5-5--7-7-7-7-7-7--10--7-7-7--|
E:-----------------------------------------------------------------5-5-5-5-5-5--8---5-5-5--|

e:-----------|
B:-----------|
G:-----------|
D:-----------|
A:-7-7-7--10-|
E:-5-5-5--8--|

e:-----------------------------------------------------------------------------------------|
B:-----------------------------------------------------------------------------------------|
G:-----------------------------------------------------------------------------------------|
D:-7-7-7-7-7-7--10--7-7-7-7-7-7--10--5-5-5--10-10-10-10-7-7-7-7-7--------------------------|
A:-5-5-5-5-5-5--8---5-5-5-5-5-5--8---3-3-3--8--8--8--8--5-5-5-5-5--7-7-7-7-7-7--10--7-7-7--|
E:-----------------------------------------------------------------5-5-5-5-5-5--8---5-5-5--|

e:-----------|
B:-----------|
G:-----------|
D:-----------|
A:-7-7-7--10-|
E:-5-5-5--8--|

e:-----------------------------------------------------------------------------------------|
B:-----------------------------------------------------------------------------------------|
G:-----------------------------------------------------------------------------------------|
D:-7-7-7-7-7-7--10--7-7-7-7-7-7--10--5-5-5--10-10-10-10-7-7-7-7-7--------------------------|
A:-5-5-5-5-5-5--8---5-5-5-5-5-5--8---3-3-3--8--8--8--8--5-5-5-5-5--7-7-7-7-7-7--10--7-7-7--|
E:-----------------------------------------------------------------5-5-5-5-5-5--8---5-5-5--|

e:-------------------------------------------------------------------|
B:-------------------------------------------------------------------|
G:-------------------------------------------------------------------|
D:-------------------------------------------------------------------|
A:-7-7-7--10--7-7-7-7-7-7--10--7-7-7-7-7-7--10--7-7-7-7-7-7--10--10--|
E:-5-5-5--8---5-5-5-5-5-5--8---5-5-5-5-5-5--8---5-5-5-5-5-5--8---8---|
Comments