Dirty Rotten Imbeciles - God Is Broke Chords & Tabs

 

God Is Broke Chords & Tabs

Dirty Rotten Imbeciles Chords & Tabs

Version: 1 Type: Tab 0 ratings
1 star 2 stars 3 stars 4 stars 5 stars
comments

God Is Broke Tab

god is Broke


D.R.I.


TRANSCRIBED BY RUDY GUZMAN


guzman_84@hotmail.com


e:------------------------------------------------------------------------------------|
B:------------------------------------------------------------------------------------|
G:------------------------------------------------------------------------------------|
D:----------------------2-2-2-2-2-2-2-2-2---------------------------------------------|
A:-3--3--3--3--4-4-4-4--0-0-0-0-0-0-0-0-0--3--0---------5-5-5-5-5-5-5-5-5-5--10--7--9-|
E:-1--1--1--1--2-2-2-2---------------------------2-2-2--3-3-3-3-3-3-3-3-3-3--8---5--7-|

e:---------------------------------------------------------------|
B:---------------------------------------------------------------|
G:---------------------------------------------------------------|
D:-2-2-2-2-2-2-2-2-2---------------------------------------------|
A:-0-0-0-0-0-0-0-0-0--3--0---------5-5-5-5-5-5-5-5-5-5--10--7--9-|
E:--------------------------2-2-2--3-3-3-3-3-3-3-3-3-3--8---5--7-|

e:------------------------------------|
B:------------------------------------|
G:------------------------------------|
D:-------------------------------5--7-|
A:-------------------5h6h7-5h6h7------|
E:-3h4h5-4h5h6-5h6h7------------------|

e:---------------------------------------------------------------|
B:---------------------------------------------------------------|
G:---------------------------------------------------------------|
D:-2-2-2-2-2-2-2-2-2--5--2---------------------------------------|
A:-0-0-0-0-0-0-0-0-0--3--0----4----5-5-5-5-5-5-5-5-5-5--10--7--9-|
E:----------------------------2----3-3-3-3-3-3-3-3-3-3--8---5--7-|

e:---------------------------------------------------------------|
B:---------------------------------------------------------------|
G:---------------------------------------------------------------|
D:-2-2-2-2-2-2-2-2-2--5--2---------------------------------------|
A:-0-0-0-0-0-0-0-0-0--3--0----4----5-5-5-5-5-5-5-5-5-5--10--7--9-|
E:----------------------------2----3-3-3-3-3-3-3-3-3-3--8---5--7-|

pm......................................................................................
e:----------------------------------------------------------------------------------------|
B:----------------------------------------------------------------------------------------|
G:----------------------------------------------------------------------------------------|
D:------------7-7-7-7-7-----------------------------------5-5-5-5-5-------------5-5-5-5-5-|
A:-5-5-5-5-5--5-5-5-5-5--8-8-8-8-8--7-7-7-7-7--3-3-3-3-3--3-3-3-3-3--3-3-3-3-3--3-3-3-3-3-|
E:-3-3-3-3-3-------------6-6-6-6-6--5-5-5-5-5--1-1-1-1-1-------------1-1-1-1-1------------|


e:----------------------------------------------------------------------------------------|
B:----------------------------------------------------------------------------------------|
G:----------------------------------------------------------------------------------------|
D:------------7-7-7-7-7-----------------------------------5-5-5-5-5-------------5-5-5-5-5-|
A:-5-5-5-5-5--5-5-5-5-5--8-8-8-8-8--7-7-7-7-7--3-3-3-3-3--3-3-3-3-3--3-3-3-3-3--3-3-3-3-3-|
E:-3-3-3-3-3-------------6-6-6-6-6--5-5-5-5-5--1-1-1-1-1-------------1-1-1-1-1------------|

[ Tab from: http://www.guitartabs.cc/tabs/d/dirty_rotten_imbeciles/god_is_broke_tab.html ]
e:----------------------------------------------------------------------------------------|
B:----------------------------------------------------------------------------------------|
G:----------------------------------------------------------------------------------------|
D:------------7-7-7-7-7-----------------------------------5-5-5-5-5-------------5-5-5-5-5-|
A:-5-5-5-5-5--5-5-5-5-5--8-8-8-8-8--7-7-7-7-7--3-3-3-3-3--3-3-3-3-3--3-3-3-3-3--3-3-3-3-3-|
E:-3-3-3-3-3-------------6-6-6-6-6--5-5-5-5-5--1-1-1-1-1-------------1-1-1-1-1------------|

e:---------------------------------------------------------------|
B:---------------------------------------------------------------|
G:---------------------------------------------------------------|
D:-2-2-2-2-2-2-2-2-2--5--2---------------------------------------|
A:-0-0-0-0-0-0-0-0-0--3--0----4----5-5-5-5-5-5-5-5-5-5--10--7--9-|
E:----------------------------2----3-3-3-3-3-3-3-3-3-3--8---5--7-|

e:---------------------------------------------------------------|
B:---------------------------------------------------------------|
G:---------------------------------------------------------------|
D:-2-2-2-2-2-2-2-2-2--5--2---------------------------------------|
A:-0-0-0-0-0-0-0-0-0--3--0----4----5-5-5-5-5-5-5-5-5-5--10--7--9-|
E:----------------------------2----3-3-3-3-3-3-3-3-3-3--8---5--7-|

e:------------------------------------|
B:------------------------------------|
G:------------------------------------|
D:-------------------------------5--7-|
A:-------------------5h6h7-5h6h7------|
E:-3h4h5-4h5h6-5h6h7------------------|

pm......................................................................................
e:----------------------------------------------------------------------------------------|
B:----------------------------------------------------------------------------------------|
G:----------------------------------------------------------------------------------------|
D:------------7-7-7-7-7-----------------------------------5-5-5-5-5-------------5-5-5-5-5-|
A:-5-5-5-5-5--5-5-5-5-5--8-8-8-8-8--7-7-7-7-7--3-3-3-3-3--3-3-3-3-3--3-3-3-3-3--3-3-3-3-3-|
E:-3-3-3-3-3-------------6-6-6-6-6--5-5-5-5-5--1-1-1-1-1-------------1-1-1-1-1------------|


e:----------------------------------------------------------------------------------------|
B:----------------------------------------------------------------------------------------|
G:----------------------------------------------------------------------------------------|
D:------------7-7-7-7-7-----------------------------------5-5-5-5-5-------------5-5-5-5-5-|
A:-5-5-5-5-5--5-5-5-5-5--8-8-8-8-8--7-7-7-7-7--3-3-3-3-3--3-3-3-3-3--3-3-3-3-3--3-3-3-3-3-|
E:-3-3-3-3-3-------------6-6-6-6-6--5-5-5-5-5--1-1-1-1-1-------------1-1-1-1-1------------|


e:----------------------------------------------------------------------------------------|
B:----------------------------------------------------------------------------------------|
G:----------------------------------------------------------------------------------------|
D:------------7-7-7-7-7-----------------------------------5-5-5-5-5-------------5-5-5-5-5-|
A:-5-5-5-5-5--5-5-5-5-5--8-8-8-8-8--7-7-7-7-7--3-3-3-3-3--3-3-3-3-3--3-3-3-3-3--3-3-3-3-3-|
E:-3-3-3-3-3-------------6-6-6-6-6--5-5-5-5-5--1-1-1-1-1-------------1-1-1-1-1------------|

:-----------------------------------------|
:-----------------------------------------|
:-----------------------------------------|
:-----------------------------------------|
:-7-7-7-7-7-7-7-7-7--7\-------------------|
:-5-5-5-5-5-5-5-5-5--5\-------------------|
Comments