Dirty Rotten Imbeciles - Counter Attack Chords & Tabs

 

Counter Attack Chords & Tabs

Dirty Rotten Imbeciles Chords & Tabs

Version: 1 Type: Tab 0 ratings
1 star 2 stars 3 stars 4 stars 5 stars
comments

Counter Attack Tab

counter attack


D.R.I.


TRANSCRIBED BY RUDY GUZMAN


guzman_84@hotmail.com


e:---------------|
B:---------------|
G:---------------|
D:-9999---9999---|
A:-7777---7777---|
E:---------------|

         5 times
e:------------------------|
B:------------------------|
G:------------------------|
D:------------------------|
A:-10-10-10-10-9-9-9-9----|
E:-8--8--8--8--7-7-7-7----|
[ Tab from: http://www.guitartabs.cc/tabs/d/dirty_rotten_imbeciles/counter_attack_tab.html ]
         2 times
e:------------------------|
B:------------------------|
G:------------------------|
D:--9-9-9-9--14-14-14-14--|
A:--7-7-7-7--12-12-12-12--|
E:------------------------|

        5 times
e:---------------------|----------|
B:---------------------|----------|
G:---------------------|----------|
D:---------------------|----------|
A:-10-10-10-10-9-9-9-9-|-9--9--9--|
E:-8--8--8--8--7-7-7-7-|-7--7--7--|

e:---------------|
B:---------------|
G:---------------|
D:-9999---9999---|
A:-7777---7777---|
E:---------------|
Comments