Dire Straits - Tunnel Of Love Chords & Tabs

 

Tunnel Of Love Chords & Tabs

Dire Straits Chords & Tabs

Version: 4 Type: Tab 0 ratings
1 star 2 stars 3 stars 4 stars 5 stars
comments

Tunnel Of Love Tab

Here you find an improved version of the final solo of

'Tunnel of Love' by 'dIRE sTRAITS'


---------------------------------------------------------------------|
-10h11p10----------10-11-10--------------10-13-10-11--------------10-|
------------12--------------12-10-12------------------------10-12----|
------------14---------------------------------------12--------------|
---------------------------------------------------------------------|
---------------------------------------------------------------------|

--------------------------------------------------------------------|
-10h11p10---10b11b10b11---10-11-------------------10-11-10----------|
--------------------------------10-12---10-12--------------12-10-12-|
--------------------------------------------------------------------|
--------------------------------------------------------------------|
--------------------------------------------------------------------|


---------------------------------------------------------------------|
-10-13-10-11-----------10----------10--------------------15p13h15----|
-------------10-----------12-10-12------12p10---12p10----------------|
----------------12---------------------------------------------------|
---------------------------------------------------------------------|
---------------------------------------------------------------------|

--------------------------10-----------------------------------------|
10-11-10---------------------13-------------------------13-----------|
---------10-12-12-12\10-12-----------------10-12-12/14------12-12/14-|
-------------------------------10-10-12-12---------------------------|
---------------------------------------------------------------------|
---------------------------------------------------------------------|


-------------------------------------------------------------|
-13-------13-------13----------------------------------------|
----12h14----12h14----14\12-10-12-12/14 12/14~~~-------------|
-------------------------------------------------------------|
-------------------------------------------------------------|
-------------------------------------------------------------|

-------------------------------------------------------------|
-------------------------------------------------------------|
----9-10-10/12-12p10-9-10-10p9-------------------------------|
-12---------------------------14\12-----12p10----------------|
-------------------------------------------------------------|
-------------------------------------------------------------|

--------------------------------------------10-10---10-------|
--------------------------------------11-13------------13-13-|
----------------9-10-9-10------------------------------------|
-12-10-12-10-12-----------10-10-10-12------------------------|
-------------------------------------------------------------|
-------------------------------------------------------------|
[ Tab from: http://www.guitartabs.cc/tabs/d/dire_straits/tunnel_of_love_tab_ver_4.html ]
------------------------------------10-13-12-10----10----10------------|
-11-10--10-10-10--------15p13h15----------------13----13----13-13------|
----------------12-10-12-----------------------------------------12-12-|
-----------------------------------------------------------------------|
-----------------------------------------------------------------------|
-----------------------------------------------------------------------|

--------------10-13----10-13----10-13-10-------10-------10--10-------|
-----------13-------13-------13----------13-10----10-13--------13p10-|13
(14)12-10------------------------------------------------------------|
---------------------------------------------------------------------|
---------------------------------------------------------------------|
---------------------------------------------------------------------|


---10-------10------13-12-10---------17-15-15---10h12----10--------|
10----10-13------10----------10---10------------------13---10-13--|
-------------------------------------------------------------------|
-------------------------------------------------------------------|
-------------------------------------------------------------------|
-------------------------------------------------------------------|

------------------------13-13-13----10---13-13-----10-----------13-|
------------10-13-13---13--------11-------------11-------13---13---|
-10-12------------------------------------------------10-----------|
-------10----------------------------------------------------------|
-------------------------------------------------------------------|
-------------------------------------------------------------------|

(*)
--13--17--18--17--15-13h12-15-13------------13---13--13--13--15-15----|
13--13--13--13--13------------------------15---15--15--15-------------|
---------------------------------14--14-14----------------------------|
----------------------------------------------------------------------|
----------------------------------------------------------------------|
----------------------------------------------------------------------|

-12-13-15--12-13-15-15-15/17----13------13-13------13-13------13-13-|
-----------------------------15------15---------15---------15-------|
--------------------------------------------------------------------|
--------------------------------------------------------------------|
--------------------------------------------------------------------|
--------------------------------------------------------------------|

-|-----|---------------------------------------------------|
-|-----|-11-10-10/11----10-11-10---------10----------------|
-|piano|-------------------------12---10----12-10-12-10----|
-|-----|---------------------------------------------------|
-|-----|---------------------------------------------------|
-|-----|---------------------------------------------------|


Part with (*) is a bit simplified
what Knofler should be something like this ...

---13-----------17-13----13-18-13---13-17-13----13-1513--|
13----13----13-------13---------13-----------13-----------|
---------14------------------------------------------------|
-----------------------------------------------------------|
-----------------------------------------------------------|
-----------------------------------------------------------|

15-15-13-121312----------|
------------------15-------|
---------------------14-14-|
---------------------------|
---------------------------|
---------------------------|


Enjoy !

the Guy
Comments