Dire Straits - So Far Away From Me Chords & Tabs

 

So Far Away From Me Chords & Tabs

Dire Straits Chords & Tabs

Version: 1 Type: Tab 0 ratings
1 star 2 stars 3 stars 4 stars 5 stars
comments

So Far Away From Me Tab

   
artist-dire straits
song-so far away
guitarist-mark knoffler
tabbed by smellslikefeet1


s-slide
h-hammeron

Hm-harmonic
~vabrato

 begining chords 
  Bm       A        E
|----------0-0-0-0-------------|
|----------2-2-2-2-------------|
|-4-4-4-4--2-2-2-2--1-1-1-1----|play through riff 1
|-4-4-4-4--2-2-2-2--2-2-2-2----|
|-2-2-2-2--0-0-0-0--2-2-2-2----|
|-------------------0-0-0-0----|

riff 1  pick lightly                
|-------------------------------|
|-2-7-9-7--9-5------------------|
|-2s7-7-6--6-4------------------| x2
|------------------2h4h2h4-2----|
|------------------0------------|
|-------------------------------|
they use this a couple times in the siong


riff 2
|---------------|
|-2-7-9-5-------|
|-2s7-7-4-------|
|---------------|
|---------------|
|---------------|
[ Tab from: http://www.guitartabs.cc/tabs/d/dire_straits/so_far_away_from_me_tab.html ]
E                       Bm
here i am again in this mean old town 
Bm                        E
and your so far away from me
E                              Bm
And where are you when the sun goes down
Bm                      E
You're so far away from me

riff 2 A

C#
So far away from me
Bm                E      A
So far I just can't see
C#
So far away from me
Bm           A     
You're so far away from me
Em

riff 1 and begining chords x1


same chords
I'm tired of being in love and being all alone
When you're so far away from me
I'm tired of making out on the telephone
And you're so far away from me

riff2

same chords
So far away from me
So far I just can't see

riff 2

So far away from me
You're so far away from me

riff 1 beginig chords x2

same chords
I get so tired when I have to explain
When you're so far away from me
See you been in the sun and I've been in the rain
And you're so far away from me

riff 2

same chords
So far away from me
So far I just can't see

riff2

So far away from me
You're so far away from me

then jsut play the begining chords and riff one till the end theres a could slight
cahnges in some of the movements that are easy to here!
Comments