Dire Straits - So Far Away Chords & Tabs

 

So Far Away Chords & Tabs

Dire Straits Chords & Tabs

Version: 1 Type: Bass Tab

So Far Away Bass Tab

I couldn't find a bass tab on the internet for this song, so I tried to make one. Think 
really went ok, and it is easy to play.

Between the parts some E's are played, can't count them really well, so keep playing it 
the next part has to be played :-)

Intro:
G|----------------------------------------|
D|----------------------------------------|
A|----------------------------------------|
E|--5-7-7-7-7-7-7-5-5-5-5-5-5-0-0-0-0-0-0-|

Part 1:
G|--------------------------------------|
D|--------------------------------------|
A|--------------------------------------|
E|--0-0-4-4-5-5-7-7-7-7-5-5-5-5-0-0-0-0-|
[ Tab from: http://www.guitartabs.cc/tabs/d/dire_straits/so_far_away_btab.html ]
Part 2:
G|--------------------------------------|
D|--------------------------------------|
A|--------------------------------------|
E|--0-0-4-4-5-5-7-7-7-7-7-7-7-7-0-0-0-0-|

Part 3:
G|------------------------------------------------------------------------|
D|------------------------------------------------------------------------|
A|--4---------------4-4-4-4-------------4---------------4-4-4-4-----------|
E|----5-4-4-5-5-5-5---------7-7-7-7-0-0---5-4-4-5-5-5-5---------7-7-7-7-5-|

Song:

Intro
Part 1 x 2
Part 2 x 2
Part 3

Part 1
Part 2 x 2
Part 3

Part 1 x 2
Part 2 x 2
Part 3

Continue playing part 1 till the end of the song