Dire Straits - Romeo And Juliet Chords & Tabs

 

Romeo And Juliet Chords & Tabs

Dire Straits Chords & Tabs

Version: 5 Type: Tab 0 ratings
1 star 2 stars 3 stars 4 stars 5 stars
comments

Romeo And Juliet Tab

   
Intro
  Q=86
 4/4
  Gtr I
  Q     E  E   +E   S  S S S S S   Q      E  E   +E   S  S S S  E
|-4--------4---(4)-------2-----2-|-0---------0---(0)------------2---|
|-------3----------^3-^3-----2---|-0------0----------^0-^0-2-3-^2---|
|-----2------2-----^2-^2---2-----|-----0-(0)---0-----^0-^0--------2-|
|---4---4----------^4-^4---------|---0------------0-----------------|
|---------------2--------2-------|----------------0--------2--------|
|-0------------------------------|----------------------------------|
  E S S E.   S  Q        Q         E S S +E.   S  Q        E    S S


  Q     E  E   +E     S S  S  S S  S   Q      E  E   +E  S S E E
|-4--------4------------------4-2----|-0---------0---(0)-------2----|
|-------3------------------3-------2-|-0------0----------0-0---2----|
|-----2------2-(2)------2---------^2-|-----0-(0)---0-----0-0-2-2----|
|---4---4-------------4---------2----|-------------------0-0-2------|
|------------------2------(2)--------|---0------------0------2------|
|-0-------------0--------------------|------------------------------|
  E S S E.   S  S  E.     +E    S  S   E S S +E.   S  E  S S Q


  Q     E  E   +E    S S E    E     Q      E  E   +E    S S E   E
|-4--------4---(4)-------2--------|-0---------0---(0)-------4---2---|
|-------3------------3-3------2---|-0------0------------0-0---------|
|-----2-2----2-------2----------2-|-----0-(0)-4-0-------0-----------|
|---4----------------4---2--------|---0-----------------0-------2---|
|---------------------------------|----------------0----------------|
|-0-------------0-----------------|---------------------------------|
| E S S E.   S  E    E   E.     S   E S S +E  S S  Q        E   E
|
| Gtr III
| E S S E  S S  S  S S S S  S S S   E S S  E  E    S  S S S S S S S
|-8-8-8-8--8-8--8--8-8-8-8--8-8-8-|-8-8-8--8--8----8--8-8-8-8-6-6-5-|
|-6-6-6-6--6-6--6--6-6-6-6--6-6-6-|-6-6-6--6--6----6--6-6-6-6-6-6-6-|
|-5-5-5-5--5-5--5--5-5-5-5--5-5-5-|-5-5-5--5--5----5--5-5-5-5-5-5-5-|
|---------------------------------|---------------------------------|
|---------------------------------|---------------------------------|
|---------------------------------|---------------------------------|


  Q     E  E   E    S S  S  S S S   Q        E  E   +E    S S E a E
|-4--------4----------------4-2---|-0-----------0---(0)---0---------||
|-------3----------------3------2-|-0--------0------------0-0-3---3-||
|-----2---------------2-----------|-------0-(0)---0-------0---2---2-||
|-4-4---4-----------4-------------|---------------------------4-2h4-||
|------------2---2------(2)-------|-----0------------0--------2-----||
|--------------0------------------|---------------------------------||
| E S S E.   S S E.     +Q          E   S S +E.   S  Q        Q
|
| E S S E  S S S S  S S  S  S S S   S S S S  E  E    S  S S S E a E
|-5-5-5-5--5-5-8-8--8-8--8--8-8-8-|-6-6-6-6--6--6----6--6-6-6-------||
|-6-6-6-6--6-6-6-6--6-6--6--6-6-6-|-6-6-6-6--6--6----6--6-6-6-6-5s6-||
|-5-5-5-5--5-5-5-5--5-5--5--5-5-5-|-7-7-7-7--7--7----7--7-7-7-7-5-5-||
|---------------------------------|---------------------------8-8-8-||
|---------------------------------|---------------------------------||
|---------------------------------|---------------------------------||


 Verse 1
  Gtrs II, IIGtr II
  H.      Q    H.        Q    H    +E  S S S S S S
|-5----------|-1--------^3--|-5----(5)-------------|
|-6----------|-3--------^1--|-6----(6)-------5-5-3-|
|-5----------|-2--------^0--|-5----(5)-x-x-5-5-5-3-|
|-7----------|-0--------^2--|-7----(7)-x-x-5-5-5---|
|------------|----------^3--|----------------------|
|------------|--------------|----------------------|


  Gtr II
  S S S S S S S S S S S S S S S S   E S S E E E S S S S S S
|-1-1-1-1-1-1-1-1-----------------|-3-3-3-3-3-3-3-3-3-1-1-1-|
|-3-3-3-3-3-3-3-3-3-3-3-3-3-3-3-3-|-5-5-5-5-5-5-5-5-5-3-3-3-|
|-2-2-2-2-2-2-2-2-3-3-3-3-3-3-3-3-|-5-5-5-5-5-5-5-5-5-3-3-3-|
|-0-0-0-0-0-0-0-0-3-3-3-3-3-3-3-3-|-5-5-5-5-5-5-5-5-5-3-3-3-|
|-----------------1-1-1-1-1-1-1-1-|-------------------------|
|---------------------------------|-------------------------|
|
| Gtr IV
| H               Q       S S E     H         H
|---------------------------------|-------------------------|
|-----------------------------6---|-------------------------|
|-------------------------5s7-----|-5-----------------------|
|---------------------------------|-------------------------|
|---------------------------------|-------------------------|
|---------------------------------|-------------------------|


  E S S E S S E S S S S S S   E S S E S S E S S E E   E S S S S S S E E E E
|-0-0-0-0-0-1-1-1-1---------|-----------1---------1-|-------------------------|
|-1-1-1-1-1-1-1-1---------1-|-3-----3-3-3-3-3-3-3-3-|-------------5-5-3-------|
|-0-0-0-0-0---2-2-------2---|---3-3-3-3-3-3-3-3-3-3-|-5-5-5-5-5-5-5-----5-3---|
|-2-2-2-2-2---3-3-----------|---3-3-3-3-3-3-3-3-3-3-|-5-5-5-5-5-5-5-----------|
|-3-3-3-3-3-----3-----3-----|-1-----------1---------|-3-3-3-3-3-3-3-----------|
|---------------1---1-------|-------------1---------|-------------------------|


  Gtr Gtr II
   Q  S S S S S S S S E E   E S S E S S E E E S S
|-^1--5-5-5-5-5-5-5-5-3-1-|-1-1-1-1-1-1-----3-3---|
|-^1--6-6-6-6-6-6-6-6-5-3-|-3-3-3-3-3-3-3-3-1-1---|
|-^2--5-5-5-5-5-5-5-5-5-3-|-2-2-2-2-2-2-0-3-0-0---|
|-^3----------------------|-0-0-0-0-0-0-----------|
|-^3----------------------|-----------------------|
|-^1----------------------|-----------------------|
   W


   S +S  S S E S S E S S S S S S
|-^5-(5)-5-5-5-5-5-5-5-5---------|
|-^6-(6)-6-6-6-6-6-6-6-6-5-5-5-5-|
|-^5-(5)-5-5-5-5-5-5-5-5-5-5-5-5-|
|-^7-(7)-7-7-7-7-7-7-7-7-5-5-5-5-|
|-^8-(8)-8-8-8-8-8-8-8-8---------|
|--------------------------------|


  E S S E S S E E E   E   E  E E S S S S E S S S S
|-1-1-1---1-1-----------|--------------------------|
|-3-3-3-3-3-3-3-3-3---3-|-5--5-5-5-5-5-5-5-5-3-3-3-|
|-2-2-2-2-2-2-3-3-3---3-|-5--5-5-5-5-5-5-5-5-3-3-3-|
|-0-----0-----3-3-5---3-|-5--5-5-5-5-5-5-5-5-3-3-3-|
|-----------------------|-3--3-3-3-3-3-3-3-3-1-1-1-|
|-----------------------|--------------------------|
|
| Gtr III
| H           Q   E   E   H.               S S S S
|-----------------------|--------------------------|
|-----------------------|--------------------3-3-3-|
|-----------------0---2-|-0------------------3-3-3-|
|-----------------------|--------------------3-3-3-|
|-----------------------|--------------------------|
|-----------------------|--------------------------|
|
| Gtr IV
| H           Q   S S E   H          H
|-----------------------|--------------------------|
|---------------------6-|--------------------------|
|-----------------5s7---|-5------------------------|
|-----------------------|--------------------------|
|-----------------------|--------------------------|
|-----------------------|--------------------------|


  E E S S S S E S S S S S S
|---------1-1-1-1-1----------|
|-5-5-5-5-1-1-1-1-1-------1--|
|-5-5-5-5-2-2-2-2-2-----2----|
|-5-5-5-5-----3-3-3----------|
|-3-3-3-3-------------3------|
|-------------------1--------|
|
| H           H
|----------------------------|
|-5--------------------------|
|-5--------------------------|
|-5--------------------------|
|----------------------------|
|----------------------------|



  E S S E S S E S S S S S S
|---------------------------|
|-3---------3-----3-3-3-3-3-|
|---3-3-3-3-3---3-3-3-3-3-3-|
|---3-3-3-3-3-3-3-3-3-3-3-3-|
|-1-------1-1-1-----1-1-1-1-|
|---------------------------|



                              Chorus
  E E S S S S E S S S S S S    E  S S E E Q       E E
|---------------------------||-5--5-5-5-5-3-------3-3-|
|-5-5-5-5-5-5-5-5-5-5-5-5-5-||-6--6-6-6-6-5-------5-5-|
|-5-5-5-5-5-5-5-5-5-5-5-5-5-||-5--5-5-5-5-5-------5-5-|
|-5-5-5-5-5-5-5-5-5-5-5-5-5-||-7--7-7-7-7-5-------5-5-|
|-3-3-3-3-3-3-3-3-3-3-3-3-3-||-8--8-8-8-8-------------|
|---------------------------||------------------------|
|
|Gtrs III, V
| W                            E.   S E E S S S S E E
|---------------------------||-1----1-1-1-0-0-0-0-0-0-|
|---------------------------||-1----1-1-1-1-1-1-1-1-1-|
|---------------------------||-2----2-2-2-0-0-0-0-0-0-|
|---------------------------||-3----3-3-3-2-2-2-2-2-2-|
|---------------------------||-3----3-3-3-3-3-3-3-3-3-|
|---------------------------||-1----1-1-1-------------|


  E S S S S E E S S S S E   E S S S S E E S S S S E   E S S S S E Q  Q
|-------------------------|-5-5-5-5-5-5-3-3-3-3-3-3-|-------------1--3--|
|-6-6-6-6-6-5-3-3-3-3-3-5-|-6-6-6-6-6-6-5-5-5-5-5-5-|-6-6-6-6-6-5-3--5--|
|-7-7-7-7-7-5-3-3-3-3-3-5-|-5-5-5-5-5-5-5-5-5-5-5-5-|-7-7-7-7-7-5-3--5--|
|-7-7-7-7-7-5-3-3-3-3-3-5-|-7-7-7-7-7-7-5-5-5-5-5-5-|-7-7-7-7-7-5-3--5--|
|-------------------------|-8-8-8-8-8-8-------------|-------------------|
|-------------------------|-------------------------|-------------------|
|
| E S S S S E E S S E   E   E S S E   E E S S E   E   E S S S S E Q  Q
|-1-1-1-1-1-0-----------0-|-1-1-1-1---1-0-0-0-0---0-|-1-1-1-1-1-0----0--|
|-3-3-3-3-3-1-3-3-3-3---1-|-1-1-1-1---1-1-1-1-1---1-|-3-3-3-3-3-1-3--1--|
|-2-2-2-2-2-0-3-3-3-3---0-|-2-2-2-2---2-0-0-0-0---0-|-2-2-2-2-2-0-3--0--|
|-0-0-0-0-0-2-3-3-3-3---2-|-3-3-3-3---3-2-2-2-2---2-|-0-0-0-0-0-2-3--2--|
|-----------3-1-1-1-1---3-|-3-3-3-3---3-3-3-3-3---3-|-----------3-1--3--|
|-------------------------|-1-1-1-1---1-------------|-------------------|


  S S S S E   E H             Q.   E E S S E E   E S S E S S E S S E E
|-5-5-5-5-5----------------|--1----1-----------|-3-3-3-3-3-3-3-3-3-3----|
|-6-6-6-6-6---5-3----------|--3----3-3-3-3-3-3-|-3-3-3-3-3-3-3-3-3-3-1--|
|-5-5-5-5-5---5-3----------|--2----2-3-3-3-3-3-|-3-3-3-3-3-3-3-3-3-3-0--|
|-7-7-7-7-7---5-3----------|--0----0-3-3-3-3-3-|-5-5-5-5-5-5-5-5-5-5-2--|
|--------------------------|---------1-1-1-1-1-|-5-5-5-5-5-5-5-5-5-5-0--|
|--------------------------|-------------------|-3-3-3-3-3-3-3-3-3-3----|
|
| E   S S S S E E. S S S E    H      E S S E E   E S S E S S E S S E E
|-1---1-1-1-1-0------------|-^1----------------|-3-3-3-3-3-3-3-3-3-3-0--|
|-1---1-1-1-1-1-3--3-3-3-3-|-^3------3-3-3-3-3-|-3-3-3-3-3-3-3-3-3-3-1--|
|-2---2-2-2-2-0-3--3-3-3-3-|-^2------3-3-3-3-3-|-3-3-3-3-3-3-3-3-3-3-0--|
|-3---3-3-3-3-2-3--3-3-3-3-|-^0------3-3-3-3-3-|-5-5-5-5-5-5-5-5-5-5-2--|
|-3---3-3-3-3-3-1--1-1-1-1-|---------1-1-1-1-1-|-5-5-5-5-5-5-5-5-5-5-0--|
|-1---1-1-1-1--------------|-------------------|-3-3-3-3-3-3-3-3-3-3----|


  Gtr I
  W                 E S S E S S S S S S S S S S
|-----------------|-4-4-4-4-4-4-----------4p2---|
|-----------------|-3-3-3-3-3-3---------3-----2-|
|-----------------|-2-2-2-2-2-2-------2---------|
|-----------------|-4-4-4-4-4-4-----4-----------|
|-----------------|---------------2-------------|
|-----------------|-------------0---------------|
|
| Gtrs II, III, IV                              G
| E S S E E Q  Q    H           H
|---------0-1--0--|-1---------------------------|
|-3-3-3-3-1-3--1--|-1---------------------------|
|-3-3-3-3-0-2--0--|-2---------------------------|
|-3-3-3-3-2-0--2--|-3---------------------------|
|-1-1-1-1-3----3--|-3---------------------------|
|-----------------|-1---------------------------|


  Q      E  E   +E  S S S S E
|-0---------0---(0)---------2---|
|-0------0----------0-0-2h3-----|
|-----0-(0)---0-----0-----------|
|---------------------------2---|
|---0------------0--------------|
|-------------------------------|
| E S S +E.   S  Q      E   E
|
|tr III
| W
|-------------------------------|
|-3-----------------------------|
|-3-----------------------------|
|-3-----------------------------|
|-1-----------------------------|
|-------------------------------|


                                                               Verse 2
  Q     E  E   +E    S S E   E     Q      E  E   +E  S S E E     W
|-4--------4---(4)-------4---2---|-0---------0---(0)---------||-^4----|
|-------3------------3-3---------|--------0----------0-0-2-2-||-^3----|
|-----2------2-------2-2---------|-----0-(0)---0-----0-0-2-2-||-^2----|
|-4-4---4------------4-4-0---2---|-0-0---------------0-0-2-2-||-^4----|
|--------------------------------|----------------0------2---||-------|
|---------------0----------------|---------------------------||-^0----|
| E S S E.   S  Q        E   E     E S S +E.   S  Q      Q
|
| E S S E  E    S  S S S S S S S   E S S  E  E    E  S S E E     W
|-8-8-8-8--8----8--8-8-8-8-8-8-8-|-8-8-8--8--8----8--6-6-6-5-||--1----|
|-6-6-6-6--6----6--6-6-6-6-6-6-6-|-6-6-6--6--6----6--6-6-6-6-||--1----|
|-5-5-5-5--5----5--5-5-5-5-5-5-5-|-5-5-5--5--5----5--5-5-5-5-||--2----|
|--------------------------------|---------------------------||--3----|
|--------------------------------|---------------------------||--3----|
|--------------------------------|---------------------------||--1----|


  Gtrs II, IIGtr II
  H.      Q    H    +E  S S S S S S   S S S S S S S S S S S S S S S S
|-1-------3--|-5----(5)-------------|-1-1-1-1-1-1-1-1-------------------|
|-3-------1--|-6----(6)-------5-5-3-|-3-3-3-3-3-3-3-3-3-3-3-3-3-3-3-3---|
|-2-------0--|-5----(5)-x-x-5-5-5-3-|-2-2-2-2-2-2-2-2-3-3-3-3-3-3-3-3---|
|-0-------2--|-7----(7)-x-x-5-5-5---|-0-0-0-0-0-0-0-0-3-3-3-3-3-3-3-3---|
|---------3--|----------------------|-----------------1-1-1-1-1-1-1-1---|
|------------|----------------------|-----------------------------------|


  E S S E E E S S S S S S   E S S E S S E S S S S S S   E S S E S S E S S E E
|-3-3-3-3-3-3-3-3-3-1-1-1-|-0-0-0-0-0-1-1-1-1---------|-----------1---------1--|
|-5-5-5-5-5-5-5-5-5-3-3-3-|-1-1-1-1-1-1-1-1---------1-|-3-----3-3-3-3-3-3-3-3--|
|-5-5-5-5-5-5-5-5-5-3-3-3-|-0-0-0-0-0---2-2-------2---|---3-3-3-3-3-3-3-3-3-3--|
|-5-5-5-5-5-5-5-5-5-3-3-3-|-2-2-2-2-2---3-3-----------|---3-3-3-3-3-3-3-3-3-3--|
|-------------------------|-3-3-3-3-3-----3-----3-----|-1-----------1----------|
|-------------------------|---------------1---1-------|-------------1----------|


  E S S S S S S S S S S S S S S
|-------------------------------|
|-5-5-5-5-5-5-5-6-6-6-5-5-5-5-5-|
|-5-5-5-5-5-5-5-5-5-5-5-5-5-5-5-|
|-5-5-5-5-5-5-5-5-5-5-5-5-5-5-5-|
|-3-3-3-3-3-3-3-3-3-3-3-3-3-3-3-|
|-------------------------------|



  E  S S E S S S S E E S S   E  S S E S S E E Q
|-5--5-5-5-5-5-5-5-5-------|---------------------|
|-6--6-6-6-6-6-6-6-6-5-5-5-|-6--6-6-6-6-6-----5--|
|-5--5-5-5-5-5-5-5-5-5-5-5-|-7--7-7-7-7-7-3-3-5--|
|-7--7-7-7-7-7-7-7-7-5-5-5-|-7--7-7-7-7-7-3-3-5--|
|-8--8-8-8-8-8-8-8-8-3-3-3-|-5--5-5-5-5-5-0-1-3--|
|--------------------------|---------------------|
|
| Gtrs III, V
| H.                 Q       H.               Q
|-1------------------0-----|-1----------------0--|
|-1------------------1-----|-3----------------1--|
|-2------------------0-----|-2----------------0--|
|-3------------------2-----|-0----------------2--|
|-3------------------3-----|------------------3--|
|-1------------------------|---------------------|


  E  S S E S S E S S E E    E S S E S S E S S E S S
|-5--5-5-5-5-5-5-5-5-----|--------------------------|
|-6--6-6-6-6-6-6-6-6-5-5-|--6-6-6-6-6-6-3-3-3-3-3-3-|
|-5--5-5-5-5-5-5-5-5-5-5-|--7-7-7-7-7-7-3-3-3-3-3-3-|
|-7--7-7-7-7-7-7-7-7-5-5-|--7-7-7-7-7-7-3-3-3-3-3-3-|
|-8--8-8-8-8-8-8-8-8-----|--------------------------|
|------------------------|--------------------------|
|
| H.                 Q      H           H
|-1------------------0---|-^1-----------------------|
|-1------------------1---|-^3-----------3-----------|
|-2------------------0---|-^2-----------3-----------|
|-3------------------2---|-^0-----------3-----------|
|-3------------------3---|--------------1-----------|
|-1----------------------|--------------------------|


  Q.   S S  E  S S  S  S S S
|------------------------------|
|-5----5-5--5--5-5--5--3-3-3---|
|-5----5-5--5--5-5--5--3-3-3---|
|-5----5-5--5--5-5--5--3-3-3---|
|------------------------------|
|------------------------------|
|
| H        +Q      +S  S S S
|-0--------(0)-----(0)---------|
|-1--------(1)-----(1)-3-3-3---|
|-0--------(0)-----(0)-3-3-3---|
|-2--------(2)-----(2)-3-3-3---|
|-3--------(3)-----(3)-1-1-1---|
|------------------------------|


  E S S E S S E S S S S S S   Q.    S S E S S S S S S
|-------------1-1-1-1-------|-------------------------|
|-5-5-5-5-5-5-1-1-1-1-----1-|-3-----3-3-3-3-3-3-3-3-3-|
|-5-5-5-5-5-5-2-2-2-2---2---|-------3-3-3-3-3-3-3-3-3-|
|-5-5-5-5-5-5-3-3-3-3-------|-------3-3-3-3-3-3-3-3-3-|
|---------------------3-----|-1-----------------------|
|---------------------------|-------------------------|
|
| H           H               W
|-0-----------5-------------|-------------------------|
|-1-----------6-------------|-3-----------------------|
|-0-----------5-------------|-3-----------------------|
|-2-----------7-------------|-3-----------------------|
|-3-----------8-------------|-1---1-----1-----1-------|
|---------------------------|-------------------------|
                              Q   Q     Q     Q


  E.     S E   S S S S S S S S S S
|--------------3-3-3-3-3-3-3-3-3-3-||
|-6------5-5---5-5-5-5-5-5-5-5-5-5-||
|-5------5-5---5-5-5-5-5-5-5-5-5-5-||
|-5------5-5---5-5-5-5-5-5-5-5-5-5-||
|-3--------------------------------||
|----------------------------------||
|
| Gtr III
| S  S S S S S S S S S S S S S S S
|-1--1-1-1-1-1-1-1-1-1-1-1-1-1-0-0-||
|-1--1-1-1-1-1-1-1-1-1-1-1-1-1-1-1-||
|-0--0-0-0-0-0-0-0-0-0-0-0-0-0-0-0-||
|----------------------------------||
|----------------------------------||
|----------------------------------||
|
| Gtr V
| Q        Q       S S S S S S S S
|----------------------------------||
|----------------------------------||
|----------------------------------||
|-5--------5-------5-5-5-5-5-5-5-5-||
|-3--------3-------3-3-3-3-3-3-3-3-||
|----------------------------------||


 Chorus
  E  S S E   E E   E   E E   E S S E   E E S S E E
|-5--5-5-5---5-------------|-----------------------|
|-6--6-6-6---6-5---5---5-5-|-6-6-6-6---5-3-3-3-3-5-|
|-5--5-5-5---5-5---5---5-5-|-7-7-7-7---5-3-3-3-3-5-|
|-7--7-7-7---7-5---5---5-5-|-7-7-7-7---5-3-3-3-3-5-|
|-8--8-8-8---8-------------|-----------------------|
|--------------------------|-----------------------|
|
| E.   S E   E S S S S E E   E S S S S E E S S E E
|-1----1-1---1-0-0-0-0-0-0-|-1-1-1-1-1-0---------0-|
|-1----1-1---1-1-1-1-1-1-1-|-3-3-3-3-3-1-3-3-3-3-1-|
|-2----2-2---2-0-0-0-0-0-0-|-2-2-2-2-2-0-3-3-3-3-0-|
|-3----3-3---3-2-2-2-2-2-2-|-0-0-0-0-0-2-3-3-3-3-2-|
|-3----3-3---3-3-3-3-3-3-3-|-----------3-1-1-1-1-3-|
|-1----1-1---1-------------|-----------------------|
|
| Q      E a E Q       E E   Q     E   E Q     E E
|--------------------------|-----------------------|
|--------------------------|-----------------------|
|--------------------------|-2-----2---------------|
|----------5s7s5-------5-0-|-0-----0---0-3-----3-5-|
|-3------3-3s5s3-------3-0-|-----------3-1-----1-3-|
|-1------1-----------------|-----------------------|


  E S S E   E E S S E E   S S S S E   E Q  Q     E  S S E   E H
|-----------------------|----------------------|---------------------------|
|-6-6-6-6---6-5-5-5-5-5-|-6-6-6-6-6---5-3--5---|-6--6-6-6---5-3------------|
|-5-5-5-5---5-5-5-5-5-5-|-7-7-7-7-7---5-3--5---|-5--5-5-5---5-3------------|
|-7-7-7-7---7-5-5-5-5-5-|-7-7-7-7-7---5-3--5---|-7--7-7-7---5-3------------|
|-8-8-8-8---8-----------|----------------------|---------------------------|
|-----------------------|----------------------|---------------------------|
|
| E S S E   E E S S E E   E   S S S S E Q  Q     E  S S S S E E. S S S E
|-1-1-1-1---1-0-0-0-0-0-|-1---1-1-1-1-0----0---|-1--1-1-1-1-0--------------|
|-1-1-1-1---1-1-1-1-1-1-|-3---3-3-3-3-1-3--1---|-1--1-1-1-1-1-3--3-3-3-3---|
|-2-2-2-2---2-0-0-0-0-0-|-2---2-2-2-2-0-3--0---|-2--2-2-2-2-0-3--3-3-3-3---|
|-3-3-3-3---3-2-2-2-2-2-|-0---0-0-0-0-2-3--2---|-3--3-3-3-3-2-3--3-3-3-3---|
|-3-3-3-3---3-3-3-3-3-3-|-------------3-1--3---|-3--3-3-3-3-3-1--1-1-1-1---|
|-1-1-1-1---1-----------|----------------------|-1--1-1-1-1----------------|
|
| Q     E a E Q     E E   Q       E   E Q  E E   Q.         E Q.       S S
|-----------------------|----------------------|---------------------------|
|-----------------------|----------------------|---------------------------|
|-----------------------|-2-------2------------|---------------------------|
|---------5s7s5-----5-0-|-0-------0---0-3--3-5-|--------------3--------5s7-|
|-3-----3-3s5s3-----3-0-|-------------3-1--1-3-|-3------------1--------3s5-|
|-1-----1---------------|----------------------|-1-------------------------|


   H    Q     E E   E S S E S S E S S E E   E S S E E Q  Q
|-----------------|-----------------------|-----------------|
|--6----3-----6-5-|-3-3-3-3-3-3-3-3-3-3---|-3-3-3-3-5-6--5--|
|--7----3-----7-5-|-3-3-3-3-3-3-3-3-3-3---|-3-3-3-3-5-7--5--|
|--7----3-----7-5-|-5-5-5-5-5-5-5-5-5-5---|-3-3-3-3-5-7--5--|
|--5----1---------|-5-5-5-5-5-5-5-5-5-5-0-|-1-1-1-1-3-5--3--|
|-----------------|-3-3-3-3-3-3-3-3-3-3---|-----------------|
|
|  H    E S S E E   E S S E S S E S S E E   E S S E E Q  Q
|-^1--------------|-3-3-3-3-3-3-3-3-3-3-0-|---------0-1--0--|
|-^3----3-3-3-3-3-|-3-3-3-3-3-3-3-3-3-3-1-|-3-3-3-3-1-3--1--|
|-^2----3-3-3-3-3-|-3-3-3-3-3-3-3-3-3-3-0-|-3-3-3-3-0-2--0--|
|-^0----3-3-3-3-3-|-5-5-5-5-5-5-5-5-5-5-2-|-3-3-3-3-2-0--2--|
|-------1-1-1-1-1-|-5-5-5-5-5-5-5-5-5-5-0-|-1-1-1-1-3----3--|
|-----------------|-3-3-3-3-3-3-3-3-3-3---|-----------------|
|
| Gtrs IV, V      Gtr V
|  H    E S S E E   Q     Q     Q     E E   Q     E E Q  Q
|-----------------|-----------------------|-----------------|
|-------------6---|-----------------------|-----------------|
|---------5s7---7-|-----------------------|-----------------|
|--7----3-----3---|-----------------------|-3-----3-5-7--5--|
|--5----1-----1---|-5-----5-----5-----5-0-|-1-----1-3-5--3--|
|---------------1-|-3-----3-----3-----3---|-----------------|
   H    Q     E E


  Gtr I
  E S S E S S S S S S S S S S   Q      E  E   +E  S S S S E
|-4-4-4-4-4-4-----------4p2---|-0---------0---(0)---------2-|
|-3-3-3-3-3-3---------3-----2-|-0------0----------0-0-2h3---|
|-2-2-2-2-2-2-------2---------|-----0-(0)---0-----0---------|
|-4-4-4-4-4-4-----4-----------|---------------------------2-|
|---------------2-------------|---0------------0------------|
|-------------0---------------|-----------------------------|
|                               E S S +E.   S  Q      E   E
|
| Gtr III
| W                             W
|-1---------------------------|-----------------------------|
|-1---------------------------|-3---------------------------|
|-2---------------------------|-3---------------------------|
|-3---------------------------|-3---------------------------|
|-3---------------------------|-1---------------------------|
|-1---------------------------|-----------------------------|


  Q     E  E   +E    S S E   E
|-4--------4---(4)-------4---2-----|
|-------3------------3-3-----------|
|-----2------2-------2-2-----------|
|-4-4---4------------4-4-0---2-----|
|----------------------------------|
|---------------0------------------|
| E S S E.   S  Q        E   E
|
| E S S E  E    S  S S S S S S S
|-8-8-8-8--8----8--8-8-8-8-8-8-8---|
|-6-6-6-6--6----6--6-6-6-6-6-6-6---|
|-5-5-5-5--5----5--5-5-5-5-5-5-5---|
|----------------------------------|
|----------------------------------|
|----------------------------------|


                                Verse 3
  Q        E  E   +E  S S E E     W
|-0-----------0---(0)---------||-^4-------------|
|----------0----------0-0-2-2-||-^3-------------|
|-------0-(0)---0-----0-0-2-2-||-^2-------------|
|-0---0---------------0-0-2-2-||-^4-------------|
|------------------0------2---||----------------|
|-----------------------------||-^0-------------|
| E   S S +E.   S  Q      Q
|
| S S S S  E  S S  E  S S E E     H.      +E. S
|-8-8-8-8--8--8-8--8--8-8-6-6-||--5-------(5)---|
|-6-6-6-6--6--6-6--6--6-6-6-6-||--6-------(6)-3-|
|-5-5-5-5--5--5-5--5--5-5-5-5-||--5-------(5)-2-|
|-----------------------------||--7-------(7)---|
|-----------------------------||--8-------(8)---|
|-----------------------------||----------------|


  W             W
|------------|--------------------|
|------------|--------------------|
|------------|--------------------|
|------------|--------------------|
|------------|--------------------|
|------------|--------------------|
|
| H.      Q     Q  +H     S S S S
|-1-------0--|-^1--(1)------------|
|-3-------1--|-^1--(1)----5-5-3-3-|
|-2-------0--|-^2--(2)----5-5-3-3-|
|-0-------2--|-^3--(3)----5-5-3-3-|
|---------3--|-^3--(3)------------|
|------------|-^1--(1)------------|


  Gtr II
  E S S E S S E E S S E   E S S E E S S S S S S S S   E. S E E E S S S S S S
|-5-5-5-5-5-5-----------|---------------------------|--------------------------|
|-6-6-6-6-6-6-----------|-5-5-5-5-5-5-5-5-5-5-3-3-3-|-5--6-6-5-6-6-6-------1---|
|-7-7-7-7-7-7-7-7-7-7-7-|-5-5-5-5-5-5-5-5-5-5-3-3-3-|-5--5-5-5-5-5-5-----2-----|
|-7-7-7-7-7-7-8-8-8-8-8-|-5-5-5-5-5-5-5-5-5-5-3-3-3-|-5--5-5-5-7-7-7-----------|
|-------------8-8-8-8-8-|-3-3-3-3-3-3-3-3-3-3-1-1-1-|-3--3-3-3-8-8-8---3-------|
|-------------6-6-6-6-6-|---------------------------|----------------1---------|
|
| Gtr IV
| H           Q   S S E   H         H                 W
|-----------------------|---------------------------|--------------------------|
|---------------------6-|---------------------------|--------------------------|
|-----------------5s7---|-5-------------------------|--------------------------|
|-----------------------|---------------------------|--------------------------|
|-----------------------|---------------------------|--------------------------|
|-----------------------|---------------------------|--------------------------|


  E S S E S S E S S E S S   E S S E S S E. S +E  E   W
|-------------------------|------------------------|-5----|
|-3-3-3-3-3-3-3-3-3-3-3-3-|---6-6-6-6-6-5--3-(3)---|-6----|
|---3-3-3-3-3-3-3-3-3-3-3-|-5-5-5-5-5-5-5--------5-|-5----|
|---3-3-3-3-3-3-3-3-3-3-3-|-5-5-5-5-5-5-5--5-(5)-5-|-7----|
|-1-----------------------|-3-3-3-3-3-3-3----------|-8----|
|-------------------------|------------------------|------|


  H.      Q    H    Q  Q    +H     H      H    Q  S S S S
|-1----------|---------1--|-(1)---------|-------------------|
|-3----------|------------|-------------|-----------3-3-3---|
|-2----------|------------|-------------|-----------3-3-3---|
|-0----------|------------|-------------|-----------3-3-3---|
|------------|------------|-------------|-----------1-1-1---|
|------------|------------|-------------|-------------------|


  E S S E S S E S S S S S S   E   S S E   S S E   S S E   S S
|-------------1-1-1---------|---------------------------------|
|-5-5-5-5-5-5-1-1-1-------1-|-3---3-3-3---3-3-3---3-3-3---3-3-|
|-5-5-5-5-5-5-2-2-2-----2---|-----3-3-3---3-3-3---3-3-3---3-3-|
|-5-5-5-5-5-5-3-3-3---------|-----3-3-3---3-3-3---3-3-3---3-3-|
|-3-3-3-3-3-3---------3-----|-1-------------------------------|
|-------------------1-------|---------------------------------|
|
| Gtr III
| W                           S S S S S S S S S S S S S S S S
|---------------------------|---------------------------------|
|---------------------------|-3-3-3-3-3-3-3-3-3-3-3-3-3-3-3-3-|
|---------------------------|-3-3-3-3-3-3-3-3-3-3-3-3-3-3-3-3-|
|---------------------------|-3-3-3-3-3-3-3-3-3-3-3-3-3-3-3-3-|
|---------------------------|-1-1-1-1-1-1-1-1-1-1-1-1-1-1-1-1-|
|---------------------------|---------------------------------|

[ Tab from: http://www.guitartabs.cc/tabs/d/dire_straits/romeo_and_juliet_tab_ver_5.html ]
                                    Chorus
  E   S S S S S S S S S S S S S S    E  S S E   S S S S S S S S S S
|---------------------------------||-5--5-5-5---5-5------------------|
|-6---6-6-6-6-6-6-6-6-6-6-6-5-5-5-||-6--6-6-6---6-6-5-5-5-5-5-5-5-5--|
|-5---5-5-5-5-5-5-5-5-5-5-5-5-5-5-||-5--5-5-5---5-5-5-5-5-5-5-5-5-5--|
|-5---5-5-5-5-5-5-5-5-5-5-5-5-5-5-||-7--7-7-7---7-7-5-5-5-5-5-5-5-5--|
|-3---3-3-3-3-3-3-3-3-3-3-3-3-3-3-||-8--8-8-8---8-8------------------|
|---------------------------------||---------------------------------|
|
| S S S S S S S S S S S S S S S S    E.   S E   E   S S S S E   E
|-1-1-1-1-1-1-1-1-1-1-1-1-1-1-0-0-||-1----1-1---1---0-0-0-0-0---0----|
|-1-1-1-1-1-1-1-1-1-1-1-1-1-1-1-1-||-1----1-1---1---1-1-1-1-1---1----|
|-0-0-0-0-0-0-0-0-0-0-0-0-0-0-0-0-||-2----2-2---2---0-0-0-0-0---0----|
|-2-2-2-2-2-2-2-2-2-2-2-2-2-2-2-2-||-3----3-3---3---2-2-2-2-2---2----|
|---------------------------------||-3----3-3---3---3-3-3-3-3---3----|
|---------------------------------||-1----1-1---1--------------------|
|
| Gtr V
| Q       Q       E   E   E   E      Q      E a E   Q       E   E
|---------------------------------||---------------------------------|
|---------------------------------||---------------------------------|
|---------------------------------||---------------------------------|
|-5-------5-------5---5---5---5---||----------5s7s==5-------5---0----|
|-3-------3-------3---3---3---3---||-3------3-3s5s==3-------3---0----|
|---------------------------------||-1------1------------------------|


  E S S E   E E S S E E   E S S E   E E S S E E   S S S S E   E Q  Q
|-----------------------|-----------------------|----------------------|
|-6-6-6-6---5-3-3-3-3-5-|-6-6-6-6---6-5-5-5-5-5-|-6-6-6-6-6---5-3--5---|
|-7-7-7-7---5-3-3-3-3-5-|-5-5-5-5---5-5-5-5-5-5-|-7-7-7-7-7---5-3--5---|
|-7-7-7-7---5-3-3-3-3-5-|-7-7-7-7---7-5-5-5-5-5-|-7-7-7-7-7---5-3--5---|
|-----------------------|-8-8-8-8---8-----------|----------------------|
|-----------------------|-----------------------|----------------------|
|
| E S S S S E E S S E E   E S S E   E E S S E E   E   S S S S E Q  Q
|-1-1-1-1-1-0---------0-|-1-1-1-1---1-0-0-0-0-0-|-1---1-1-1-1-0----0---|
|-3-3-3-3-3-1-3-3-3-3-1-|-1-1-1-1---1-1-1-1-1-1-|-3---3-3-3-3-1-3--1---|
|-2-2-2-2-2-0-3-3-3-3-0-|-2-2-2-2---2-0-0-0-0-0-|-2---2-2-2-2-0-3--0---|
|-0-0-0-0-0-2-3-3-3-3-2-|-3-3-3-3---3-2-2-2-2-2-|-0---0-0-0-0-2-3--2---|
|-----------3-1-1-1-1-3-|-3-3-3-3---3-3-3-3-3-3-|-------------3-1--3---|
|-----------------------|-1-1-1-1---1-----------|----------------------|
|
| Q     E   E Q     E E   Q     E a E Q     E E   Q       E   E Q  E E
|-----------------------|-----------------------|----------------------|
|-----------------------|-----------------------|----------------------|
|-2-----2---------------|-----------------------|-2-------2------------|
|-0-----0---0-3-----3-5-|---------5s7s5-----5-0-|-0-------0---0-3--3-5-|
|-----------3-1-----1-3-|-3-----3-3s5s3-----3-0-|-------------3-1--1-3-|
|-----------------------|-1-----1---------------|----------------------|


  E  S S E   E H               H    Q     E E   E S S E S S E S S E E
|---------------------------|--1----------1-0-|------------------------|
|-6--6-6-6---5-3------------|--3----3-----3-1-|-3-3-3-3-3-3-3-3-3-3----|
|-5--5-5-5---5-3------------|--2----3-----2-0-|-3-3-3-3-3-3-3-3-3-3----|
|-7--7-7-7---5-3------------|--0----3---------|-5-5-5-5-5-5-5-5-5-5----|
|---------------------------|-------1---------|-5-5-5-5-5-5-5-5-5-5-0--|
|---------------------------|-----------------|-3-3-3-3-3-3-3-3-3-3----|
|
| E  S S S S E E. S S S E      H    E S S E E   E S S E S S E S S E E
|-1--1-1-1-1-0--------------|-^1--------------|-3-3-3-3-3-3-3-3-3-3-0--|
|-1--1-1-1-1-1-3--3-3-3-3---|-^3----3-3-3-3-3-|-3-3-3-3-3-3-3-3-3-3-1--|
|-2--2-2-2-2-0-3--3-3-3-3---|-^2----3-3-3-3-3-|-3-3-3-3-3-3-3-3-3-3-0--|
|-3--3-3-3-3-2-3--3-3-3-3---|-^0----3-3-3-3-3-|-5-5-5-5-5-5-5-5-5-5-2--|
|-3--3-3-3-3-3-1--1-1-1-1---|-------1-1-1-1-1-|-5-5-5-5-5-5-5-5-5-5-0--|
|-1--1-1-1-1----------------|-----------------|-3-3-3-3-3-3-3-3-3-3----|
|
| Gtr V                     Gtrs IV, V        Gtr V
| Q.         E Q.       S S    H    E S S Q     Q     Q     Q     E E
|---------------------------|-----------------|------------------------|
|---------------------------|-------------6---|------------------------|
|---------------------------|---------5s7-----|------------------------|
|--------------3--------5s7-|--7----3-----3---|------------------------|
|-3------------1--------3s5-|--5----1-----1---|-5-----5-----5-----5-0--|
|-1-------------------------|---------------1-|-3-----3-----3-----3----|
                               H    Q     E E


  Gtr V           Gtr I
  Q     E E Q  Q    E S S E E S S S S S S S S
|-----------------|---------------------4p2---|
|-----------------|-------------------3-----2-|
|-----------------|-----------------2---------|
|-3-----3-5-7--5--|---------------4-----------|
|-1-----1-3-5--3--|-------------2-------------|
|-----------------|-0-0-0-0-0-0---------------|
|
| Gtrs II, III                                
| E S S E E Q  Q    W
|---------0-1--0--|-1-------------------------|
|-3-3-3-3-1-3--1--|-1-------------------------|
|-3-3-3-3-0-2--0--|-2-------------------------|
|-3-3-3-3-2-0--2--|-3-------------------------|
|-1-1-1-1-3----3--|-3-------------------------|
|-----------------|-1-------------------------|


  Q      E  E   +E  S S S S E
|-0---------0---(0)---------2-----|
|-0------0----------0-0-2h3-------|
|-----0-(0)---0-----0-0-------2---|
|-------------------0-0-----2-----|
|---0------------0------2---------|
|---------------------------------|
| E S S +E.   S  Q      E   S S
|
|Gtr III
| W
|---------------------------------|
|-3-------------------------------|
|-3-------------------------------|
|-3-------------------------------|
|-1-------------------------------|
|---------------------------------|


  Q     E  E   +E    S S E   E     Q      E  E   +E  S S E   E
|-4--------4---(4)-------4---2---|-0---------0---(0)-0-0-2---2----|
|-------3------------3-3---------|--------0----------0-0-2---2----|
|-----2------2-------2-2---------|-----0-(0)-0-------0-0-2---2----|
|-4-4---4------------4-4-----2---|-0-0---------------0-0-2---2----|
|---------------2--------2-------|----------------0------2---2----|
|--------------------------------|--------------------------------|
| E S S E.   S  Q        E   E     E S S +E  E    Q      E   E
|
| E S S E  E    S  S S S S S S S   E S S  E  S S  E  S S S S S S
|-8-8-8-8--8----8--8-8-8-8-8-8-8-|-8-8-8--8--8-8--8--8-8-8-8-8-8--|
|-6-6-6-6--6----6--6-6-6-6-6-6-6-|-6-6-6--6--6-6--6--6-6-6-6-6-6--|
|-5-5-5-5--5----5--5-5-5-5-5-5-5-|-5-5-5--5--5-5--5--5-5-5-5-5-5--|
|--------------------------------|--------------------------------|
|--------------------------------|--------------------------------|
|--------------------------------|--------------------------------|


  Q     E  E   +E    S S S S S S   Q      E  E   +E  S S S S E
|-4--------4---(4)-------2-----2-|-0---------0---(0)---------2----|
|-------3------------3-3-----2---|--------0----------0-0-2h3------|
|-----2--------------2-2---2-----|-0---0-(0)---0-----0-0----------|
|-4-4---4----4-------4-4-----2---|-0-0---------------0-0-----2----|
|---------------2--------2-------|----------------0------2--------|
|--------------------------------|--------------------------------|
| E S S E.   S  Q        E   E     E S S +E.   S  Q      E   E
|
| E S S E  E    S  S S S S S S S   E S S  E  E    E  S S S S S S
|-8-8-8-8--8----8--8-8-8-8-8-8-8-|-8-8-8--8--8----8--8-8-8-6-6-6--|
|-6-6-6-6--6----6--6-6-6-6-6-6-6-|-6-6-6--6--6----6--6-6-6-6-6-6--|
|-5-5-5-5--5----5--5-5-5-5-5-5-5-|-5-5-5--5--5----5--5-5-5-5-5-5--|
|--------------------------------|--------------------------------|
|--------------------------------|--------------------------------|
|--------------------------------|--------------------------------|


                                                         Verse 4
  Q       E  E   +E    E   E   E     Q.       E Q   Q     W
|-4----------4---(4)---4---4---2---|-4--------2-0---0--||-4----|
|---------3------------3-----------|--------0----------||-3----|
|-------2------2-------2-----------|------0------------||-2----|
|-4---4---4-------4------------2---|-0--0--------------||-4----|
|----------------------------------|--------------0-2--||------|
|----------------------------------|-------------------||------|
| E   S S E.   S  Q        E   E     E  S S Q   E E Q
|
| Gtr III                                              Gtrs II, III
| S S S S E  E    S  S S S S S S S   H          H         W
|-8-8-8-8-8--8----8--8-8-8-8-8-8-5-|-8----------6------||-1----|
|-6-6-6-6-6--6----6--6-6-6-6-6-6-6-|-6----------6------||-1----|
|-5-5-5-5-5--5----5--5-5-5-5-5-5-5-|-5----------5------||-2----|
|----------------------------------|-------------------||-3----|
|----------------------------------|-------------------||-3----|
|----------------------------------|-------------------||-1----|


  Gtr II
  H.      Q    W          Q  S S S S Q  S S E   H    +E  S S S S S S
|-1-------0--|-5--------|-1--1-1-1-1----------|-0----(0)-0-0-0-------|
|-3-------1--|-6--------|-3--3-3-3-3-3--3-3-3-|-1----(1)-1-1-1-3-3-3-|
|-2-------0--|-5--------|-2--2-2-2-2-3--5-5-3-|-0----(0)-0-0-0-3-3-3-|
|-0----------|-7--------|-0--0-0-0-0-3--5-5-3-|-2----(2)-2-2-2-3-3-3-|
|------------|-8--------|---------------------|-3----(3)-3-3-3-------|
|---------0--|----------|---------------------|----------------------|
|
| Gtr III                 Gtr IV
| W            W          H          Q  S S E   H     H
|-1----------|----------|---------------------|----------------------|
|-3----------|----------|-------------------6-|----------------------|
|-2----------|----------|---------------5s7---|-5--------------------|
|-0----------|----------|---------------------|----------------------|
|------------|----------|---------------------|----------------------|
|------------|----------|---------------------|----------------------|


  E S S E S S E S S S S S S   Q  E E E E E S S
|-0-0-0-0-1-1-1-1-1---------|------------------||
|-1-1-1-1-1-1-1-1-1-------1-|-3--3-3-3-3-3-3-3-||
|-0-0-0-0-2-2-2-2-2-----2---|-3--3-3-3-3-3-3-3-||
|---------------------------|----3-3-3-3-3-3-3-||
|---------------------3-----|-1----------------||
|-------------------1-------|------------------||


 Outro
  E S S S S S S  S  S S S S S S S   S S S S S S S S  S  S S S  S  S S S
|---------------------------------|--------------------------------------|
|-6-5-5-5-5-5-5--5--5-5-5-3-3-3-3-|-3-3-3-3-3-3-3-3--3--3-3-3--3--3-3-3--|
|-5-5-5-5-5-5-5--5--5-5-5-5-5-5-5-|-3-3-3-3-3-3-3-3--3--3-3-3--3--3-3-3--|
|-5-5-5-5-5-5-5--5--5-5-5-5-5-5-5-|-3-3-3-3-3-3-3-3--3--3-3-3--3--3-3-3--|
|---------------------------------|--------------------------------------|
|---------------------------------|--------------------------------------|
|
| Gtr III
| E E   Q       +H                  Q       E   E   +E    E   +Q
|-1-0---0-------(0)---------------|-----------------------3---(3)--------|
|-1-1---1-------(1)---------------|-------------3---(3)------------------|
|-0-0---0-------(0)---------------|---------0----------------------------|
|---------------------------------|--------------------------------------|
|---------------------------------|--------------------------------------|
|---------------------------------|--------------------------------------|
|
| Gtr IV
| E E   Q       +H                  W
|---------------------------------|--------------------------------------|
|-3s5---5-------(5)---------------|-6------------------------------------|
|-3s5---5-------(5)---------------|-7------------------------------------|
|---------------------------------|--------------------------------------|
|---------------------------------|--------------------------------------|
|---------------------------------|--------------------------------------|


  S S S S S S S S S S S S S S S S   S S S S S S S S  S  S S S  S  S S S
|---------------------------------|-------------------------------------|
|-5-5-5-5-5-5-5-5-5-5-5-5-5-3-3-3-|-3-3-3-3-3-3-3-3--3--3-3-3--3--3-3-3-|
|-5-5-5-5-5-5-5-5-5-5-5-5-5-5-5-5-|-3-3-3-3-3-3-3-3--3--3-3-3--3--3-3-3-|
|-5-5-5-5-5-5-5-5-5-5-5-5-5-5-5-5-|-3-3-3-3-3-3-3-3--3--3-3-3--3--3-3-3-|
|---------------------------------|-------------------------------------|
|---------------------------------|-------------------------------------|
|
| E   E   E   E   E   E   E   E     E   E   Q       +H
|---------------------------------|-------------------------------------|
|---------------------------------|-------------------------------------|
|---------0-----------------------|---------0-------(0)-----------------|
|-----2-------3---2---0---2---0---|-----3-------------------------------|
|---------------------------------|-1-----------------------------------|
|---------------------------------|-------------------------------------|
|
| W                                 Q       E   S S  E.     S +Q
|---------------------------------|-------------------------------------|
|---------------------------------|------------------6------------------|
|---------------------------------|-------------7p5---------7-(7)-------|
|---------------------------------|-------------------------------------|
|---------------------------------|-------------------------------------|
|---------------------------------|-------------------------------------|


  S S S S S   S   S S  S  S S S S S S S   S S S S S S S S  S  S S S S S S S
|---------------------------------------|-----------------------------------|
|-3-3-3-3-3---3---3-3--3--3-3-3-3-3-3-3-|-3-3-3-3-3-3-3-3--3--3-3-3-3-------|
|-5-5-5-5-5---5---5-5--5--5-5-5-5-5-5-5-|-3-3-3-3-3-3-3-3--3--3-3-3-3-5S7-3-|
|-5-5-5-5-5---5---5-5--5--5-5-5-5-5-5-5-|-3-3-3-3-3-3-3-3--3--3-3-3-3-5S7-3-|
|---------------------------------------|-----------------------------------|
|---------------------------------------|-----------------------------------|
|
| E   E   Q           +H                  E   E   Q       +H
|---------------------------------------|-----------------------------------|
|---------------------------------------|-----------------------------------|
|---------0-----------(0)---------------|---------0-------(0)---------------|
|-----3---------------------------------|-----3-----------------------------|
|-1-------------------------------------|-1---------------------------------|
|---------------------------------------|-----------------------------------|
|
|         |--3--|
| Q       S S   S S S  Q        Q         E   S S S S S S  S  S S S Q
|---------------------------------------|-----------------------------------|
|---------------------------------------|-----------------------1-----------|
|-----------------5---------------------|-------------3-3-----3-------------|
|-----------7---7------7--------5-------|-------5-5-------------------------|
|---------------------------------------|-----------------------------------|
|---------------------------------------|-----------------------------------|


  S S E S S S S  S  S S S S S S S   S S S S S S S S  S  S S S  S  S S S
|---------------------------------|--------------------------------------|
|-------3-3-3-3--3--3-3-3-3-3-3-3-|-3-3-3-3-3-3-3-3--3--3-3-3--3--3-3-3--|
|-5---5-5-5-5-5--5--5-5-5-5-5-5-5-|-3-3-3-3-3-3-3-3--3--3-3-3--3--3-3-3--|
|-5---5-5-5-5-5--5--5-5-5-5-5-5-5-|-3-3-3-3-3-3-3-3--3--3-3-3--3--3-3-3--|
|---------------------------------|--------------------------------------|
|---------------------------------|--------------------------------------|
|
| E   E E   E   +H                  E   E   Q       +H
|---------------------------------|--------------------------------------|
|-----------1---(1)---------------|--------------------------------------|
|-------0-------------------------|---------3-------(3)------------------|
|-----2---------------------------|-----3--------------------------------|
|-1-------------------------------|-1------------------------------------|
|---------------------------------|--------------------------------------|
|
| W                                 Q       E   S S  E.     S +Q
|---------------------------------|--------------------------------------|
|---------------------------------|------------------6-------------------|
|---------------------------------|-------------7p5---------7-(7)--------|
|---------------------------------|--------------------------------------|
|---------------------------------|--------------------------------------|
|---------------------------------|--------------------------------------|


   S  S S S S S S S  S  S S S S S S S   S S S S S S S S  S  S S S S S S S
|-------------------------------------|-----------------------------------|
|--5--5-5-5-5-5-5-5--5--5-5-5-5-5-5-5-|-3-3-3-3-3-3-3-3--3--3-3-3-3-3-3-3-|
|--5--5-5-5-5-5-5-5--5--5-5-5-5-5-5-5-|-3-3-3-3-3-3-3-3--3--3-3-3-3-3-3-3-|
|--5--5-5-5-5-5-5-5--5--5-5-5-5-5-5-5-|-3-3-3-3-3-3-3-3--3--3-3-3-3-3-3-3-|
|-------------------------------------|-----------------------------------|
|-------------------------------------|-----------------------------------|
|
|  E    E   E   E   +H                  E   E   Q       +H
|-------------------------------------|-----------------------------------|
|---------------1---(1)---------------|-----------------------------------|
|-----------0-------------------------|---------3-------(3)---------------|
|-------2-----------------------------|-----3-----------------------------|
|--1----------------------------------|-1---------------------------------|
|-------------------------------------|-----------------------------------|
|
| +Q        Q        E    E   S S E     W
|-------------------------------------|-----------------------------------|
|-------------------------------------|-----------------------------------|
|-(7)----------------5------------5---|-----------------------------------|
|-------------------------7---5h7-----|-----------------------------------|
|-------------------------------------|-----------------------------------|
|-------------------------------------|-----------------------------------|


  S S S S S   S   S S  S  S S S S S S S   S S S S S S S S S S S S S S S S
|---------------------------------------|---------------------------------|
|-5-5-5-5-5---5---5-5--5--5-5-5-5-5-5-5-|-3-3-3-3-3-3-3-3-3-3-3-3-3-3-3-3-|
|-5-5-5-5-5---5---5-5--5--5-5-5-5-5-5-5-|-3-3-3-3-3-3-3-3-3-3-3-3-3-3-3-3-|
|-5-5-5-5-5---5---5-5--5--5-5-5-5-5-5-5-|-3-3-3-3-3-3-3-3-3-3-3-3-3-3-3-3-|
|---------------------------------------|---------------------------------|
|---------------------------------------|---------------------------------|
|
| E   E   Q            E    S S S S E     E   E   E   E   E   S S S S E
|----------------------3----3-3-3-3-3---|---------------------------------|
|----------------------1----1-1-1-1-1---|-------------3---3---3-3-3-3-3---|
|---------0------------3----3-3-3-3-3---|---------3-------3---3-3-3-3-3---|
|-----2---------------------------------|-----3-----------3---3-3-3-3-3---|
|-1-------------------------------------|-1---------------1---1-1-1-1-0---|
|---------------------------------------|---------------------------------|
|
|         |--3--|
| Q       S S   S E   +E.     S S S E     W
|---------------------------------------|---------------------------------|
|---------------------------------------|---------------------------------|
|---------5p3p==0h5---(5)-----0-3-5-5---|---------------------------------|
|---------------------------------------|---------------------------------|
|---------------------------------------|---------------------------------|
|---------------------------------------|---------------------------------|


  S S  S  S S   S S S  S  S S S S S S S   S S S S S S S S S S S S S S S S
|---------------------------------------|----------------------------------|
|-3-3--3--3-3---3-3-3--3--3-3-3-3-3-3-3-|-3-3-3-3-3-3-3-3-3-3-3-3-3-3-3-3--|
|-5-5--5--5-5---5-5-5--5--5-5-5-5-5-5-5-|-3-3-3-3-3-3-3-3-3-3-3-3-3-3-3-3--|
|-5-5--5--5-5---5-5-5--5--5-5-5-5-5-5-5-|-3-3-3-3-3-3-3-3-3-3-3-3-3-3-3-3--|
|---------------------------------------|----------------------------------|
|---------------------------------------|----------------------------------|
|
| E    E    E     E   +E    S S E   E     S S S S S S S S S S S S S S S S
|---------------------------------------|----------------------------------|
|-----------------1---(1)---1-1-1---1---|-3-3-3-3-3-3-3-3-3-3-3-3-3-3-3-3--|
|-----------0---------------0-0-0---0---|-3-3-3-3-3-3-3-3-3-3-3-3-3-3-3-3--|
|------2--------------------2-2-2---2---|-3-3-3-3-3-3-3-3-3-3-3-3-3-3-3-3--|
|-1-------------------------1-1-1---1---|----------------------------------|
|---------------------------------------|----------------------------------|
|
| E S +T. X S S S S S  S  E Q             Q       E   S S H
|---8-(8)s3-----------------------------|----------------------------------|
|---8-(8)s3-8-5-8-5---------------------|-----------------6----------------|
|-----------7-5-7-5-5--7----------------|-------------5s7------------------|
|-------------------5--7----------------|----------------------------------|
|---------------------------------------|----------------------------------|
|---------------------------------------|----------------------------------|


  Gtrs II, III
  S S S S S S S S S     S      S  S  S   S S S
|----------------------------------------------|
|-5-5-5-5-5-5-5-5-5-----5------5--5--5---5-5---|
|-5-5-5-5-5-5-5-5-5-----5------5--5--5---5-5-3-|
|-5-5-5-5-5-5-5-5-5-----7------5--5--5---7-5-3-|
|----------------------------------------------|
|----------------------------------------------|
|
| H               S    +S     +E    +Q
|----------------------------------------------|
|-----------------6pb8r(6)b8==(8)---(8)r-------|
|----------------------------------------------|
|----------------------------------------------|
|----------------------------------------------|
|----------------------------------------------|


  S S S S S S S S S S S S S S S S
|---------------------------------|
|-3-3-3-3-3-3-3-3-3-3-3-3-3-3-3-3-|
|-3-3-3-3-3-3-3-3-3-3-3-3-3-3-3-3-|
|-3-3-3-3-3-3-3-3-3-3-3-3-3-3-3-3-|
|---------------------------------|
|---------------------------------|



  Gtr II
  S S S  S    S S S S S S S S S S E     E   S S S S S S S S S S S S S S
|-------------------------------------|----------------------------------|
|-5-5-5--5----5-5-5-5-5-5-5-6-5-------|-----3-3-3-3-3-3-3-3-3-3-3-3-3-3--|
|-5-5-5--5----5-5-5-5-5-5-5-5-5-5-5---|-----3-3-3-3-3-3-3-3-3-3-3-3-3-3--|
|-5-5-5--5----5-5-5-5-5-5-5-5-5-5-5---|-----3-3-3-3-3-3-3-3-3-3-3-3-3-3--|
|-------------------------------------|----------------------------------|
|-------------------------------------|----------------------------------|
|
| Gtr III
| S S S  S    S S S S S S S S S S S S   S S S S S S S S S S S S S S S S
|-------------------------------------|----------------------------------|
|-5-5-5--5----5-5-5-5-5-5-5-5-5-5-5---|-3-3-3-3-3-3-3-3-3-3-3-3-3-3-3-3--|
|-5-5-5--5----5-5-5-5-5-5-5-5-5-5-5-3-|-3-3-3-3-3-3-3-3-3-3-3-3-3-3-3-3--|
|-5-5-5--5----5-5-5-5-5-7-5-5-5-7-5-3-|-3-3-3-3-3-3-3-3-3-3-3-3-3-3-3-3--|
|-------------------------------------|----------------------------------|
|-------------------------------------|----------------------------------|
|
| Gtr V
| E   S +T. X S S S S S S S S Q         H               S S E   Q
|-----8-(8)s3-------------------------|---------------------6------------|
|-----8-(8)s3-5-5h8-------------------|-----------------6s8-6------------|
|-------------5-5---5-5-7---5---------|-----------------5s7--------------|
|---------------------5-7---5---------|----------------------------------|
|-------------------------------------|----------------------------------|
|-------------------------------------|----------------------------------|


  S S S      S       S   S S S S S S S S S S S
|----------------------------------------------|
|-3-3-3------3-------3---3-3-3-3-3-3-3-3-3-3-3-|
|-5-5-5------5-------5---5-5-5-5-5-5-5-5-5-5-5-|
|-5-5-5------5-------5---5-5-5-5-5-5-5-5-5-5-5-|
|----------------------------------------------|
|----------------------------------------------|
|
| S S S      S       S   S S S S S S S S S S S
|----------------------------------------------|
|-5-5-5------5-------5---5-5-5-5-5-5-5-5-5-5---|
|-5-5-5------5-------5---5-5-5-5-5-5-5-5-5-5-3-|
|-5-5-5------5-------5---5-5-5-5-7-5-5-5-7-5-3-|
|----------------------------------------------|
|----------------------------------------------|
|
| E   S     +S      +Q         Q       Q
|----------------------------------------------|
|-----8pb10r(8)b10=(10)r-----------------------|
|-----7pb9r=(7)b9===(9)r-------7---------------|
|----------------------------------------------|
|----------------------------------------------|
|----------------------------------------------|


  S S S S S S S S S  S S S  S  S S S
|------------------------------------|
|-3-3-3-3-3-3-3-3-3--3-3-3--3--3-3-3-|
|-3-3-3-3-3-3-3-3-3--3-3-3--3--3-3-3-|
|-3-3-3-3-3-3-3-3-3--3-3-3--3--3-3-3-|
|------------------------------------|
|------------------------------------|
|
| S S S S S S S S S  S S S  S  S S S
|------------------------------------|
|-3-3-3-3-3-3-3-3-3--3-3-3--3--3-3-3-|
|-3-3-3-3-3-3-3-3-3--3-3-3--3--3-3-3-|
|-3-3-3-3-3-3-3-3-3--3-3-3--3--3-3-3-|
|------------------------------------|
|------------------------------------|
|
| Q       E   S S E.     S +Q
|------------------------------------|
|-----------------6------------------|
|-------------7-5--------7-(7)-------|
|------------------------------------|
|------------------------------------|
|------------------------------------|


   E    E   E   E   S S S S S S E     E   E   E   E   S  S  S S   S  S S S
|-----------------------------------|--------------------------------------|
|---------------1-------------------|-------------3---3--3--3-3---3--3-3-3-|
|--0--------0-----------------------|-------------3---3--3--3-3---3--3-3-3-|
|-------2-----------5-5-5-5-5-5-5---|-----3-------3---3--3--3-3---3--3-3-3-|
|-------------------3-3-3-3-3-0-0---|-1-------1----------------------------|
|-----------------------------------|--------------------------------------|
|
|  S  S S S S S S S S S S S S S S S   S S S S S S S S S  S  S S   S  S S S
|-----------------------------------|--------------------------------------|
|--5--5-5-5-5-5-5-5-5-5-5-5-5-5-5---|-3-3-3-3-3-3-3-3-3--3--3-3---3--3-3-3-|
|--5--5-5-5-5-5-5-5-5-5-5-5-5-5-5-3-|-3-3-3-3-3-3-3-3-3--3--3-3---3--3-3-3-|
|--5--5-5-5-5-5-5-5-5-7-5-5-5-7-5-3-|-3-3-3-3-3-3-3-3-3--3--3-3---3--3-3-3-|
|-----------------------------------|--------------------------------------|
|-----------------------------------|--------------------------------------|
|
| +Q.           S S S S S S E   E     H               S  E.      +Q
|-----------------------------------|-----------------8s10------(10)-------|
|-----------------------------------|--------------------------------------|
|-(7)-----------5-7-5-3-5---3---5---|-----------------8s10------(10)-------|
|-------------------------5---------|--------------------------------------|
|-----------------------------------|--------------------------------------|
|-----------------------------------|--------------------------------------|


  S  S S  S   S  S  S S  S  S S  S   S  S S S
|---------------------------------------------|
|-5--5-5--5---5--5--5-5--5--5-5--5---5--5-5-5-|
|-5--5-5--5---5--5--5-5--5--5-5--5---5--5-5-5-|
|-5--5-5--5---5--5--5-5--5--5-5--5---5--5-5-5-|
|---------------------------------------------|
|---------------------------------------------|
|
| S  S S  S   S  S  S S  S  S S  S   S  S S S
|---------------------------------------------|
|-5--5-5--5---5--5--5-5--5--5-5--5---5--5-5---|
|-5--5-5--5---5--5--5-5--5--5-5--5---5--5-5-3-|
|-5--5-5--5---5--5--5-5--5--7-5--5---5--7-5-3-|
|---------------------------------------------|
|---------------------------------------------|
|
| S  E    S  +E     E    E.      S  +E    E
|-8s10---10-(10)----8---10------10-(10)---6---|
|---------------------------------------------|
|-8s10---10-(10)---10---10-------9--(9)---7---|
|---------------------------------------------|
|---------------------------------------------|
|---------------------------------------------|


  W
|--------------------------------------|
|--------------------------------------|
|--------------------------------------|
|--------------------------------------|
|--------------------------------------|
|--------------------------------------|
|
| S S S S S S S    S  S  S S S S S S S
|--------------------------------------|
|-3-3-3-3-3-3-3----3--3--3-3-3-3-3-3-3-|
|-3-3-3-3-3-3-3----3--3--3-3-3-3-3-3-3-|
|-3-3-3-3-3-3-3----3--3--3-3-3-3-3-3-3-|
|--------------------------------------|
|--------------------------------------|
|
| Q       E   E      +H
|-------------6------(6)---------------|
|-------------6pb8r==(6)---------------|
|--------------------------------------|
|--------------------------------------|
|--------------------------------------|
|--------------------------------------|


  Gtr III
  S S S S S S S S S S S S S S S S
|---------------------------------*|
|-5-5-5-5-5-5-5-5-5-5-5-5-5-5-5---*|
|-5-5-5-5-5-5-5-5-5-5-5-5-5-5-5-3-*|
|-5-5-5-5-5-5-5-5-5-7-5-5-5-7-5-3-*|
|---------------------------------*|
|---------------------------------*|
Comments