Dire Straits - Romeo And Juliet Chords & Tabs

 

Romeo And Juliet Chords & Tabs

Dire Straits Chords & Tabs

Version: 2 Type: Tab 1 rating
1 star 2 stars 3 stars 4 stars 5 stars
comments

Romeo And Juliet Tab

   
Song: Romeo And Juliet
 Artist: Dire Straits
 Composer  Writer: Mark Knopfler
 Album: Making Movies

 Tabbed By: Joe Thelwell
 
 Capo on Third.
 All chords etc are relative to the capo.
 

 I play this on my acoustic and i think it sounds really
 close to the Dire Straits version, which i'm quite proud
 of since it's one of my favourite songs.  It's not 
 perfect in places but hey, it's only my second attempt 
 at writing a tab! 


 Introduction: 

 E --2-------2---------------------2-0-2-------2-----0h2-0
 B ------3-------3---3-----3---3-----------3--------3-----
 G ----2---2---2---------0---0---0-------2---2-----2------
 D --0-------0-----0---0---------------0-------0--0-------
 A ----------------------------------------------0--------
 E ------------------3---------3--------------------------
 
 E -----------------------0-2-------2---------------------
 B -3---3-----3---3---3---------3-------3---3-----3---3---
 G ---0-----0---0---0---0-----2---2---2---------0---0---0-
 D -------0-----------------0-------0-----0---0-----------
 A -------------------------------------------------------
 E -----3---------3-------------------------3---------3---

 E -2-0-2-------2-----0h2-0-------------------2-0-2-------
 B ---------3--------3------3---3-----3---3-------3-------
 G -------2---2-----2---------0-----0---0---0-----2-------
 D -----0-------0--0--------------0---------------0-------
 A ---------------0-------------------------------x-------
 E -----------------------------3---------3-------x-------

 First Verse:

     D     D Bm       Bm  

 E --2-----------------------2-0-2-------------------2-0--
 B --3-----------------------3-3-3-------------------3-3--
 G --2-----------------------2-0-4-------------------4-0--
 D --0-----------------------0-0-4-------------------4-0--
 A --x-----------------------x-x-2-------------------2-x--
 E --x-----------------------x-x-2-------------------2-x--
 
    


     D     D Bm       Bm  

 E --2-----------------------2-0-2-2-2-2-2-2-2-2-----3-0--
 B --3-----------------------3-3-3-3-2-2-2-2-2-2-----3-3--
 G --2-----------------------2-0-4-4-4-4-4-4-4-4-----4-0--
 D --0-----------------------0-0-4-4-4-4-4-4-4-4-----4-0--
 A --x-----------------------x-x-2-2-2-2-2-2-2-2-----2-x--
 E --x-----------------------x-x-2-2-2-2-2-2-2-2-----2-x--

  

     A     A A     A   G  

 E --0-0-0-0-0-0-0-----------0-0-0-0-0-0-0-0-------0-0-3--
 B --2-2-2-2-2-2-2-----------2-0-2-2-2-2-2-2-------2-0-3--
 G --2-2-2-2-2-2-2-----------2-0-2-2-2-2-2-2-------2-0-0--
 D --2-2-2-2-2-2-2-----------2-0-2-2-2-2-2-2-------2-0-0--
 A --0-0-0-0-0-0-0-----------0-x-0-0-0-0-0-0-------0-x-2--
 E --0-0-0-0-0-0-0-----------0-x-0-0-0-0-0-0-------0-x-3--

     .

     G     G  A     A A   A     D

 E --3-3-3-3-----------------3-0-0----------0-0-0-0-0-0--2
 B --3-3-3-3-----------------3-0-2----------2-2-3-2-0-0--3
 G --0-0-0-0-----------------0-0-2----------2-2-2-2-2-0--2
 D --0-0-0-0-----------------0-0-2----------2-2-2-2-2-0--0
 A --2-2-2-2-----------------2-x-0----------0-0-0-0-0-x--x
 E --3-3-3-3-----------------3-x-0----------0-0-0-0-0-x--x
 
     You and me babe...


 Second Verse: Same as the first.


 Chorus:

     D   D         Bm        G 

 E --2-----2-0---0-0-0-0-2-2-2-2-0-3--
 B --3-----3-3---3-3-3-3-3-3-3-3-3-3--
 G --2-----2-2---2-2-0-0-4-4-4-4-0-0--
 D --0-----0-0---0-0-0-0-4-4-4-4-0-0--
 A --x-----x-x---x-x-x-x-2-2-2-2-0-2--
 E --x-----x-x---x-x-x-x-2-2-2-2-0-3--

     Juliet...     

     D   D             Bm        G 

 E --2-----2-0---0-0-0-0-2-2-2-2-0-3--
 B --3-----3-3---3-3-3-3-3-3-3-3-3-3--
 G --2-----2-2---2-2-0-0-4-4-4-4-0-0--
 D --0-----0-0---0-0-0-0-4-4-4-4-0-0--
 A --x-----x-x---x-x-x-x-2-2-2-2-0-2--
 E --x-----x-x---x-x-x-x-2-2-2-2-0-3--

    


              D  Bm 

 E -----------2-----------------0-2--
 B -----------3-----------------3-3--
 G -----------2-----------------2-4--
 D -----------0-----------------0-4--
 A -----------x-----------------x-2--
 E -----------x-----------------x-2--

    

                   G                  

 E ----------------3-----------------
 B ----------------3------3b4-0------
 G ----------------0---2h4-----------
 D ----------------0-----------------
 A ----------------2-----------------
 E ----------------3-----------------

           
[ Tab from: http://www.guitartabs.cc/tabs/d/dire_straits/romeo_and_juliet_tab_ver_2.html ]
 E ------------------------------------0-2-3--------2-----
 B ------------------------------------3-3-3--------3-----
 G ------------------------------------2-4-0--------2-----
 D ---2--------------------------------0-4-0--------0-----
 A ---2--------------------------------x-2-2--------x-----
 E ------------------------------------x-2-3--------x-----

     

 E ----0h2-0-------------------2-0-2-------2--------------
 B ---3------3---3-----3---3-----------3-------3---3-----3
 G --2---------0-----0---0---0-------2---2---2---------0--
 D -0--------------0---------------0-------0-----0---0----
 A 0------------------------------------------------------
 E --------------3---------3-----------------------3------

 E -------2-0-2-------
 B ---3-------3-------
 G -0---0-----2-------
 D -----------0------- 
 A -----------x-------
 E ---3-------x-------

 
 Third Verse:  Same chords as first verse.

 Forth Verse: Same chords as first verse but emphasise
 chord changes.

 Second Chorus:  Same as previous chorus.

 E ----0h2-0-------------------2-0-2-------2--------------
 B ---3------3---3-----3---3-----------3-------3---3-----3
 G --2---------0-----0---0---0-------2---2---2---------0--
 D -0--------------0---------------0-------0-----0---0----
 A 0------------------------------------------------------
 E --------------3---------3-----------------------3------

 E -------2-0-2-------
 B ---3-------3-------
 G -0---0-----2-------
 D -----------0------- 
 A -----------x-------
 E ---3-------x-------

 Fifth and Sixth Verse: Same as first verse.

 Third Chorus: Same as previous verse.

 E ----0h2-0-------------------2-0-2-------2--------------
 B ---3------3---3-----3---3-----------3-------3---3-----3
 G --2---------0-----0---0---0-------2---2---2---------0--
 D -0--------------0---------------0-------0-----0---0----
 A 0------------------------------------------------------
 E --------------3---------3-----------------------3------

 E -------2-0-2-------2---------------------0h2p0-2-------
 B ---3-----------3-------3---3-----3---3-------------3---
 G -0---0-------2---2---2---------0---0---0---------2---2-
 D -----------0-------0-----0---0-----------------0-------
 A --------------------- ---------------------------------
 E ---3-----------------------3---------3-----------------

 E -2--2-0-2-0-----2- 
 B ------------3-0-3-
 G ----------------2- 
 D -0--0-0-0-0-0-0-0-  
 A ----------------x- 
 E ----------------x-

  Final Verse:

     D     D Bm       Bm  

 E --2-----------------------2-0-2-------------------2-0--
 B --3-----------------------3-3-3-------------------3-3--
 G --2-----------------------2-0-4-------------------4-0--
 D --0-----------------------0-0-4-------------------4-0--
 A --x-----------------------x-x-2-------------------2-x--
 E --x-----------------------x-x-2-------------------2-x--
 
     A love struck Romeo... 


     D     D Bm       Bm  

 E --2-----------------------2-0-2-2-2-2-2-2-2-2-----3-0--
 B --3-----------------------3-3-3-3-2-2-2-2-2-2-----3-3--
 G --2-----------------------2-0-4-4-4-4-4-4-4-4-----4-0--
 D --0-----------------------0-0-4-4-4-4-4-4-4-4-----4-0--
 A --x-----------------------x-x-2-2-2-2-2-2-2-2-----2-x--
 E --x-----------------------x-x-2-2-2-2-2-2-2-2-----2-x--

 

     A     A A     A   G  

 E --0-0-0-0-0-0-0-----------0-0-0-0-0-0-0-0-------0-0-3--
 B --2-2-2-2-2-2-2-----------2-0-2-2-2-2-2-2-------2-0-3--
 G --2-2-2-2-2-2-2-----------2-0-2-2-2-2-2-2-------2-0-0--
 D --2-2-2-2-2-2-2-----------2-0-2-2-2-2-2-2-------2-0-0--
 A --0-0-0-0-0-0-0-----------0-x-0-0-0-0-0-0-------0-x-2--
 E --0-0-0-0-0-0-0-----------0-x-0-0-0-0-0-0-------0-x-3--

 

     G     G  A     A A  A A    

 E --3-3-3-3-----------------3-0-0----------0-0-0-0-0-----
 B --3-3-3-3-----------------3-0-2----------2-2-3-2-2-----
 G --0-0-0-0-----------------0-0-2----------2-2-2-2-2-----
 D --0-0-0-0-----------------0-0-2----------2-2-2-2-2-----
 A --2-2-2-2-----------------2-x-0----------0-0-0-0-0-----
 E --3-3-3-3-----------------3-x-0----------0-0-0-0-0-----
 
    

     G     G  A    A A   A A    

 E --3-3-3-3-----------------3-0-0----------0-0-0-0-0-----
 B --3-3-3-3-----------------3-0-2----------2-2-3-2-2-----
 G --0-0-0-0-----------------0-0-2----------2-2-2-2-2-----
 D --0-0-0-0-----------------0-0-2----------2-2-2-2-2-----
 A --2-2-2-2-----------------2-x-0----------0-0-0-0-0-----
 E --3-3-3-3-----------------3-x-0----------0-0-0-0-0-----
 


     G     G  A   

 E --3-3-3-3-----------------3-0-0-------
 B --3-3-3-3-----------------3-0-2-------
 G --0-0-0-0-----------------0-0-2-------
 D --0-0-0-0-----------------0-0-2-------
 A --2-2-2-2-----------------2-x-0-------
 E --3-3-3-3-----------------3-x-0-------
 
   

    A            D
 
 E --0-0-0-0-0-0--2-2h3-2
 B --2-2-3-2-0-0--3-3---3
 G --2-2-2-2-2-0--2-2---2
 D --2-2-2-2-2-0--0-0---0
 A --0-0-0-0-0-x--x-x---x
 E --0-0-0-0-0-x--x-x---x

 That's it.....hope you all enjoy it!
Comments