Dire Straits - Romeo And Juliet Chords & Tabs

 

Romeo And Juliet Chords & Tabs

Dire Straits Chords & Tabs

Version: 1 Type: Tab 1 rating
1 star 2 stars 3 stars 4 stars 5 stars
comments

Romeo And Juliet Tab

Song: Romeo & Juliet - Intro
Band: Dire Straits 
Album: Making Movies
Tabbed by Mike Peppit (mikepeppit@hotmail.com) 1/4/02
Capo must be on the third fret. Therefore third fret is played as an open string making it much easier. (Knopfler does it as well!)

I think this is pretty close to the real thing, give or take a few notes and it's more accurate than the tabs I've found. The tricky bit is playing it as fast as Knopfler does! Any corrections or additions are welcome.

| 5----------5-------------- 3-----------------------------------------3---5----------5---------
| 6-------6- --6-------6-6--------5--- 6------ --6--------6-6----5h6---------------6-----6-----
| 5----5---- ----5-----5-5-- ---5-- -5---------5---5------5-5------------------- 5----------------
| ---7-----------------7-7----------------- -7-------7----7-7-----------------7-------------------
| -----------------------------------------5--------------------------------------------------------
| ------------------------------------------------------------------------------------------------------
[ Tab from: http://www.guitartabs.cc/tabs/d/dire_straits/romeo_and_juliet_tab.html ]
| --------5---3----------------------------------------------------------------------------------------
| ------6--------5 ---6---------6-----------6--------5----------------------------------------
| ----5------------5----------5---5---------5---5----5-----------------------------------------
| --7----------------------7--------7-------7--------7-----------------------------------------
| 3----------------------5------------------5--------5----------------------------------------
| ------------------------------------------------------------------------------------------------------

Rest of band comes in:

| 5-----------5-------------- -3----------------------------------5---3---5-------------5---------
| 6--------6- --6--------6-6--------5---6------ ---6--------6-6----------------------6-----6-------
| 5------5---- ----5-----5-5-- ---5-- 5----------5---5------5-5------------------- 5----------------
| -----7-----------------7-7----------------- 7--------7----7-7-----------------7------------------
| -----------------------------------------5--------------------------------------------------------
| ------------------------------------------------------------------------------------------------------

| --------5---3----------------------------------------------5------------------------------
| ------6---------5 ---6---------6------------6--------5-----6-----------------------6----------
| ----5--------------5---------5----5---------5---5----5-----5--A love struck Romeo--5---(etc)-----
| --7------------------------7---------7------7--------7-----7-----------------------7-------------
| 3------------------------5------------------5--------5-----------------------------5---------------
| ------------------------------------------------------------------------------------------------------

See other tabs for chords and the rest of the song.
Comments