Dire Straits - Money For Nothing Chords & Tabs

 

Money For Nothing Chords & Tabs

Dire Straits Chords & Tabs

Version: 3 Type: Bass Tab 0 ratings
1 star 2 stars 3 stars 4 stars 5 stars
comments

Money For Nothing Bass Tab

   
Money For Nothing.btab
Dire Straits
TablEdited by Poppamies
Tuning : E A D G 	Time Signature: 4/4


 tempo 134       |       |        |       |       |       |        
|--------------------------------|--------------------------------|
|--------------------   intro without bass   ---------------------|
|--------------------------------|--------------------------------|
|--------------------------------|--------------------------------|

 |       |       |       |        |       |       |       |        
|--------------------------------|--------------------------------|
|--------------------------------|--------------------------------|
|--------------------------------|----------------3---------------|
|3---------------3---------------|3-----------3-------0---1---2---|

 |       |       |       |        |       |       |       |        
|--------------------------------|--------------------------------|
|--------------------------------|----------------------------0---|
|--------------------------------|1-----------1---3-------4-------|
|3---------------3-----------3---|--------------------------------|

 |       |       |       |        |       |       |       |        
|--------------------------------|--------------------------------|
|--------------------------------|----------------0---------------|
|--------------------------------|--------------------3---1p--0---|
|3---------------3-----------1---|3-----------3-------------------|

 |       |       |       |        |       |       |       Now      
|--------------------------------|--------------------------------|
|--------------------------------|----------------5---3-----------|
|--------------------------------|------------------------5---3---|
|3-----------3---3-----------3---|1-----------6-------------------|

 look at them jojos...   |        |       |       |       |        
|--------------------------------|--------------------------------|
|--------------------------------|--------------------------------|
|--------------------------------|----------------3---------------|
|3---------------3-----------1---|3-----------3-------0---1---2---|

 |       |       |       |        |       |       |       |        
|--------------------------------|--------------------------------|
|--------------------------------|----------------------------0---|
|--------------------------------|1-----------1---3-------3-------|
|3-----------3---3-----------3---|--------------------------------|

 That ain't woking...    |        |       |       |       |        
|--------------------------------|--------------------------------|
|--------------------------------|----------------0---------------|
|--------------------------------|--------------------3---1---0---|
|3-----------3---3-----------1---|3-----------3-------------------|

 Money for nothing...    |        |       |       |       |        
|--------------------------------|----------------0---------------|
|--------------------------------|--------------------3---0-------|
|--------------------------------|------------1/3-----------------|
|3-----------3---3-----------3---|1-------3-------------------3---|
[ Tab from: http://www.guitartabs.cc/tabs/d/dire_straits/money_for_nothing_btab_ver_3.html ]
 |       |       |       |        |       |       |       |        
|--------------------------------|--------------------------------|
|--------------------------------|--------------------------------|
|--------------------------------|----------------3---------------|
|3-----------3---3-----------1---|3-----------3-------0---1---2---|

 |       |       |       |        |       |       |       |        
|--------------------------------|--------------------------------|
|--------------------------------|----------------------------0---|
|--------------------------------|1-----------1---3---------------|
|3-----------3---3-----------3---|--------------------------------|

 Maby get|a...   |       |        |       |       |       |        
|--------------------------------|--------------------------------|
|--------------------------------|----------------0---------------|
|--------------------------------|--------------------3---1p--0---|
|3-----------3---3-----------3---|3-----------3-------------------|

 |       |       |       |        |       |       |       |        
|--------------------------------|--------------------------------|
|--------------------------------|----------------------------0---|
|--------------------------------|----------------1-------1-------|
|3-----------3---3-----------3---|1-----------1-------3-----------|

 We got to install...    |        |       |       |       |        
|------------------------0-------|--------------------------------|
|1---1-------1---1---1-----------|----------------1-------0---3---|
|--------------------------------|1---1-------1-------1-----------|
|--------------------------------|--------------------------------|

 |       |       |       |        |       |       |       |        
|----------------0---------------|--------------------------------|
|1-----------1-------1-----------|3-------1-----------------------|
|--------------------------------|------------3-------------------|
|--------------------------------|----------------1-------1---1---|

 |       |       |       |        |       |       |       |        
|--------------------------------|--------------------------------|
|--------------------------------|--------------------------------|
|--------------------------------|------------------------1-------|
|3-----------3---3-----------3---|3-----------3---1---3-------3---|

 |       |       |       |        |       |       |       |        
|--------------------------------|--------------------------------|
|--------------------------------|0---0-------0---------------0---|
|3---3-------3---------------3---|----------------0-------0-------|
|----------------3---0---3-------|--------------------2-----------|

 |       |       |       |        |       |       |       |        
|--------------------------------|--------------------------------|
|2-----------2---2---------------|2------------ and so on... -----|
|----------------------------2---|--------------------------------|
|--------------------------------|--------------------------------|

Transcribe! 6.0 transcription http://www.seventhstring.demon.co.uk/
Created with TablEdit http://www.tabledit.com/
http://www.geocities.com/jani_bjorklund/janis.html
Comments