Dire Straits - Lady Writer Chords & Tabs

 

Lady Writer Chords & Tabs

Dire Straits Chords & Tabs

Version: 1 Type: Tab 0 ratings
1 star 2 stars 3 stars 4 stars 5 stars
comments

Lady Writer Tab

-----------------------------------------------------------------------------
		   Lady Writer (intro) - Dire Straits
-----------------------------------------------------------------------------
Tabbed by: Nick Ventura
Email:Aerodarknesschild@msn.com

Tuning:Standard

I love the opening to the song, but I couldn't find a decent tab for it.  So this is 
I came up with.  I'm pretty sure it's accurate, but if anyone has corrections feel free to 
them.

^= Bend
H= Hold Bend
^ after H= release bend
(f)= pluck with finger
/= slide
h= hammer on
[ Tab from: http://www.guitartabs.cc/tabs/d/dire_straits/lady_writer_tab.html ]
e|--------2-----------------5(f)-------------------------7(f)----------------|
B|----------4-5-4-5-4-2---7^HHHH^-5-7---5----------7-5-7^HHHH^---------------|
G|---4/6------------------------------6---6--4-5-6-------------6-6-----------|
D|---------------------------------------------------------------------------|
A|---------------------------------------------------------------------------|
E|---------------------------------------------------------------------------|

e|---------------------------------------------------------------------------|
B|-------5-4-----------------------------------------------------------------|
G|---4h6-----6-4--------4-6^-------------------------------------------------|
D|---------------6-6---------------------------------------------------------|
A|---------------------------------------------------------------------------|
E|---------------------------------------------------------------------------|

Well, I hope that helped some people.  It might take a while to get the timing right, 
that should be a minor obstacle.

Dude out.
Comments